  0
SECTION
  2
HEADER
  9
$ACADVER
  1
AC1015
  9
$ACADMAINTVER
 70
     6
  9
$DWGCODEPAGE
  3
ANSI_1254
  9
$INSBASE
 10
0.0
 20
0.0
 30
0.0
  9
$EXTMIN
 10
0.0
 20
0.0
 30
0.0
  9
$EXTMAX
 10
279.4
 20
215.9
 30
0.0
  9
$LIMMIN
 10
0.0
 20
0.0
  9
$LIMMAX
 10
279.4
 20
215.9
  9
$ORTHOMODE
 70
     0
  9
$REGENMODE
 70
     1
  9
$FILLMODE
 70
     1
  9
$QTEXTMODE
 70
     0
  9
$MIRRTEXT
 70
     1
  9
$LTSCALE
 40
1.0
  9
$ATTMODE
 70
     1
  9
$TEXTSIZE
 40
3.5
  9
$TRACEWID
 40
1.0
  9
$TEXTSTYLE
  7
Standard
  9
$CLAYER
  8
0
  9
$CELTYPE
  6
ByLayer
  9
$CECOLOR
 62
   256
  9
$CELTSCALE
 40
1.0
  9
$DISPSILH
 70
     0
  9
$DIMSCALE
 40
1.0
  9
$DIMASZ
 40
3.5
  9
$DIMEXO
 40
1.0
  9
$DIMDLI
 40
3.75
  9
$DIMRND
 40
0.0
  9
$DIMDLE
 40
0.0
  9
$DIMEXE
 40
1.0
  9
$DIMTP
 40
0.0
  9
$DIMTM
 40
0.0
  9
$DIMTXT
 40
3.5
  9
$DIMCEN
 40
2.5
  9
$DIMTSZ
 40
0.0
  9
$DIMTOL
 70
     0
  9
$DIMLIM
 70
     0
  9
$DIMTIH
 70
     1
  9
$DIMTOH
 70
     1
  9
$DIMSE1
 70
     0
  9
$DIMSE2
 70
     0
  9
$DIMTAD
 70
     1
  9
$DIMZIN
 70
     0
  9
$DIMBLK
  1

  9
$DIMASO
 70
     1
  9
$DIMSHO
 70
     1
  9
$DIMPOST
  1

  9
$DIMAPOST
  1

  9
$DIMALT
 70
     0
  9
$DIMALTD
 70
     3
  9
$DIMALTF
 40
0.0393700787
  9
$DIMLFAC
 40
1.0
  9
$DIMTOFL
 70
     1
  9
$DIMTVP
 40
0.0
  9
$DIMTIX
 70
     0
  9
$DIMSOXD
 70
     0
  9
$DIMSAH
 70
     0
  9
$DIMBLK1
  1

  9
$DIMBLK2
  1

  9
$DIMSTYLE
  2
ISO-25
  9
$DIMCLRD
 70
     0
  9
$DIMCLRE
 70
     0
  9
$DIMCLRT
 70
     0
  9
$DIMTFAC
 40
1.0
  9
$DIMGAP
 40
1.524
  9
$DIMJUST
 70
     0
  9
$DIMSD1
 70
     0
  9
$DIMSD2
 70
     0
  9
$DIMTOLJ
 70
     0
  9
$DIMTZIN
 70
     0
  9
$DIMALTZ
 70
     0
  9
$DIMALTTZ
 70
     0
  9
$DIMUPT
 70
     0
  9
$DIMDEC
 70
     2
  9
$DIMTDEC
 70
     2
  9
$DIMALTU
 70
     2
  9
$DIMALTTD
 70
     3
  9
$DIMTXSTY
  7
Standard
  9
$DIMAUNIT
 70
     0
  9
$DIMADEC
 70
     2
  9
$DIMALTRND
 40
0.0
  9
$DIMAZIN
 70
     0
  9
$DIMDSEP
 70
    44
  9
$DIMATFIT
 70
     3
  9
$DIMFRAC
 70
     0
  9
$DIMLDRBLK
  1

  9
$DIMLUNIT
 70
     2
  9
$DIMLWD
 70
    -2
  9
$DIMLWE
 70
    -2
  9
$DIMTMOVE
 70
     0
  9
$LUNITS
 70
     2
  9
$LUPREC
 70
     2
  9
$SKETCHINC
 40
1.0
  9
$FILLETRAD
 40
10.0
  9
$AUNITS
 70
     0
  9
$AUPREC
 70
     2
  9
$MENU
  1
.
  9
$ELEVATION
 40
0.0
  9
$PELEVATION
 40
0.0
  9
$THICKNESS
 40
0.0
  9
$LIMCHECK
 70
     0
  9
$CHAMFERA
 40
0.0
  9
$CHAMFERB
 40
0.0
  9
$CHAMFERC
 40
0.0
  9
$CHAMFERD
 40
0.0
  9
$SKPOLY
 70
     0
  9
$TDCREATE
 40
2460346.670729803
  9
$TDUCREATE
 40
2460346.545729803
  9
$TDUPDATE
 40
2460346.670729988
  9
$TDUUPDATE
 40
2460346.545729988
  9
$TDINDWG
 40
0.0000000116
  9
$TDUSRTIMER
 40
0.0000000116
  9
$USRTIMER
 70
     1
  9
$ANGBASE
 50
0.0
  9
$ANGDIR
 70
     0
  9
$PDMODE
 70
     0
  9
$PDSIZE
 40
-1.0
  9
$PLINEWID
 40
0.0
  9
$SPLFRAME
 70
     0
  9
$SPLINETYPE
 70
     6
  9
$SPLINESEGS
 70
     8
  9
$HANDSEED
  5
12B
  9
$SURFTAB1
 70
     6
  9
$SURFTAB2
 70
     6
  9
$SURFTYPE
 70
     6
  9
$SURFU
 70
     6
  9
$SURFV
 70
     6
  9
$UCSBASE
  2

  9
$UCSNAME
  2

  9
$UCSORG
 10
0.0
 20
0.0
 30
0.0
  9
$UCSXDIR
 10
1.0
 20
0.0
 30
0.0
  9
$UCSYDIR
 10
0.0
 20
1.0
 30
0.0
  9
$UCSORTHOREF
  2

  9
$UCSORTHOVIEW
 70
     0
  9
$UCSORGTOP
 10
0.0
 20
0.0
 30
0.0
  9
$UCSORGBOTTOM
 10
0.0
 20
0.0
 30
0.0
  9
$UCSORGLEFT
 10
0.0
 20
0.0
 30
0.0
  9
$UCSORGRIGHT
 10
0.0
 20
0.0
 30
0.0
  9
$UCSORGFRONT
 10
0.0
 20
0.0
 30
0.0
  9
$UCSORGBACK
 10
0.0
 20
0.0
 30
0.0
  9
$PUCSBASE
  2

  9
$PUCSNAME
  2

  9
$PUCSORG
 10
0.0
 20
0.0
 30
0.0
  9
$PUCSXDIR
 10
1.0
 20
0.0
 30
0.0
  9
$PUCSYDIR
 10
0.0
 20
1.0
 30
0.0
  9
$PUCSORTHOREF
  2

  9
$PUCSORTHOVIEW
 70
     0
  9
$PUCSORGTOP
 10
0.0
 20
0.0
 30
0.0
  9
$PUCSORGBOTTOM
 10
0.0
 20
0.0
 30
0.0
  9
$PUCSORGLEFT
 10
0.0
 20
0.0
 30
0.0
  9
$PUCSORGRIGHT
 10
0.0
 20
0.0
 30
0.0
  9
$PUCSORGFRONT
 10
0.0
 20
0.0
 30
0.0
  9
$PUCSORGBACK
 10
0.0
 20
0.0
 30
0.0
  9
$USERI1
 70
     0
  9
$USERI2
 70
     0
  9
$USERI3
 70
     0
  9
$USERI4
 70
     0
  9
$USERI5
 70
     0
  9
$USERR1
 40
0.0
  9
$USERR2
 40
0.0
  9
$USERR3
 40
0.0
  9
$USERR4
 40
0.0
  9
$USERR5
 40
0.0
  9
$WORLDVIEW
 70
     1
  9
$SHADEDGE
 70
     3
  9
$SHADEDIF
 70
    70
  9
$TILEMODE
 70
     1
  9
$MAXACTVP
 70
    64
  9
$PINSBASE
 10
0.0
 20
0.0
 30
0.0
  9
$PLIMCHECK
 70
     0
  9
$PEXTMIN
 10
1.0000000000E+20
 20
1.0000000000E+20
 30
1.0000000000E+20
  9
$PEXTMAX
 10
-1.0000000000E+20
 20
-1.0000000000E+20
 30
-1.0000000000E+20
  9
$PLIMMIN
 10
0.0
 20
0.0
  9
$PLIMMAX
 10
420.0
 20
297.0
  9
$UNITMODE
 70
     0
  9
$VISRETAIN
 70
     1
  9
$PLINEGEN
 70
     0
  9
$PSLTSCALE
 70
     1
  9
$TREEDEPTH
 70
  3020
  9
$CMLSTYLE
  2
Standard
  9
$CMLJUST
 70
     0
  9
$CMLSCALE
 40
20.0
  9
$PROXYGRAPHICS
 70
     1
  9
$MEASUREMENT
 70
     1
  9
$CELWEIGHT
370
    -1
  9
$ENDCAPS
280
     0
  9
$JOINSTYLE
280
     0
  9
$LWDISPLAY
290
     1
  9
$INSUNITS
 70
     4
  9
$HYPERLINKBASE
  1

  9
$STYLESHEET
  1

  9
$XEDIT
290
     1
  9
$CEPSNTYPE
380
     0
  9
$PSTYLEMODE
290
     1
  9
$FINGERPRINTGUID
  2
{9837efec-38c4-4eb1-aa56-4744463b6b5c}
  9
$VERSIONGUID
  2
{FAEB1C32-E019-11D5-929B-00C0DF256EC4}
  9
$EXTNAMES
290
     1
  9
$PSVPSCALE
 40
0.0
  9
$OLESTARTUP
290
     0
  0
ENDSEC
  0
SECTION
  2
CLASSES
  0
CLASS
  1
ACDBDICTIONARYWDFLT
  2
AcDbDictionaryWithDefault
  3
ObjectDBX Classes
 90
        0
280
     0
281
     0
  0
CLASS
  1
VISUALSTYLE
  2
AcDbVisualStyle
  3
ObjectDBX Classes
 90
     4095
280
     0
281
     0
  0
CLASS
  1
MATERIAL
  2
AcDbMaterial
  3
ObjectDBX Classes
 90
     1153
280
     0
281
     0
  0
CLASS
  1
SCALE
  2
AcDbScale
  3
ObjectDBX Classes
 90
     1153
280
     0
281
     0
  0
CLASS
  1
TABLESTYLE
  2
AcDbTableStyle
  3
ObjectDBX Classes
 90
     4095
280
     0
281
     0
  0
CLASS
  1
MLEADERSTYLE
  2
AcDbMLeaderStyle
  3
ACDB_MLEADERSTYLE_CLASS
 90
     4095
280
     0
281
     0
  0
CLASS
  1
SUN
  2
AcDbSun
  3
SCENEOE
 90
     1153
280
     0
281
     0
  0
CLASS
  1
ACDBPLACEHOLDER
  2
AcDbPlaceHolder
  3
ObjectDBX Classes
 90
        0
280
     0
281
     0
  0
CLASS
  1
LAYOUT
  2
AcDbLayout
  3
ObjectDBX Classes
 90
        0
280
     0
281
     0
  0
ENDSEC
  0
SECTION
  2
TABLES
  0
TABLE
  2
VPORT
  5
8
330
0
100
AcDbSymbolTable
 70
     1
  0
VPORT
  5
29
330
8
100
AcDbSymbolTableRecord
100
AcDbViewportTableRecord
  2
*Active
 70
     0
 10
0.0
 20
0.0
 11
1.0
 21
1.0
 12
139.7
 22
107.95
 13
0.0
 23
0.0
 14
10.0
 24
10.0
 15
10.0
 25
10.0
 16
0.0
 26
0.0
 36
1.0
 17
0.0
 27
0.0
 37
0.0
 40
215.9
 41
1.2941176471
 42
50.0
 43
0.0
 44
0.0
 50
0.0
 51
0.0
 71
     0
 72
  2000
 73
     1
 74
     3
 75
     0
 76
     0
 77
     0
 78
     0
281
     0
 65
     1
110
0.0
120
0.0
130
0.0
111
1.0
121
0.0
131
0.0
112
0.0
122
1.0
132
0.0
 79
     0
146
0.0
  0
ENDTAB
  0
TABLE
  2
LTYPE
  5
5
330
0
100
AcDbSymbolTable
 70
     6
  0
LTYPE
  5
14
330
5
100
AcDbSymbolTableRecord
100
AcDbLinetypeTableRecord
  2
ByBlock
 70
     0
  3

 72
    65
 73
     0
 40
0.0
  0
LTYPE
  5
15
330
5
100
AcDbSymbolTableRecord
100
AcDbLinetypeTableRecord
  2
ByLayer
 70
     0
  3

 72
    65
 73
     0
 40
0.0
  0
LTYPE
  5
16
330
5
100
AcDbSymbolTableRecord
100
AcDbLinetypeTableRecord
  2
Continuous
 70
     0
  3
Solid line
 72
    65
 73
     0
 40
0.0
  0
LTYPE
  5
6E
330
5
100
AcDbSymbolTableRecord
100
AcDbLinetypeTableRecord
  2
HIDDEN
 70
     0
  3
Hidden __ __ __ __ __ __ __ __ __ __ __ __ __ __
 72
    65
 73
     2
 40
1.905
 49
1.27
 74
     0
 49
-0.635
 74
     0
  0
LTYPE
  5
6F
330
5
100
AcDbSymbolTableRecord
100
AcDbLinetypeTableRecord
  2
PHANTOM
 70
     0
  3
Phantom ______  __  __  ______  __  __  ______
 72
    65
 73
     6
 40
12.7
 49
6.35
 74
     0
 49
-1.27
 74
     0
 49
1.27
 74
     0
 49
-1.27
 74
     0
 49
1.27
 74
     0
 49
-1.27
 74
     0
  0
LTYPE
  5
70
330
5
100
AcDbSymbolTableRecord
100
AcDbLinetypeTableRecord
  2
CENTER
 70
     0
  3
Center ____ _ ____ _ ____ _ ____ _ ____ _ ____
 72
    65
 73
     4
 40
10.16
 49
6.35
 74
     0
 49
-1.27
 74
     0
 49
1.27
 74
     0
 49
-1.27
 74
     0
  0
LTYPE
  5
71
330
5
100
AcDbSymbolTableRecord
100
AcDbLinetypeTableRecord
  2
CENTERX2
 70
     0
  3
Center (2x) ________  __  ________  __  _____
 72
    65
 73
     4
 40
20.32
 49
12.7
 74
     0
 49
-2.54
 74
     0
 49
2.54
 74
     0
 49
-2.54
 74
     0
  0
LTYPE
  5
72
330
5
100
AcDbSymbolTableRecord
100
AcDbLinetypeTableRecord
  2
DOT2
 70
     0
  3
Dot (.5x) ........................................
 72
    65
 73
     2
 40
0.635
 49
0.0
 74
     0
 49
-0.635
 74
     0
  0
ENDTAB
  0
TABLE
  2
LAYER
  5
2
330
0
100
AcDbSymbolTable
 70
    17
  0
LAYER
  5
10
330
2
100
AcDbSymbolTableRecord
100
AcDbLayerTableRecord
  2
0
 70
     0
 62
     7
  6
Continuous
370
    -3
390
F
  0
LAYER
  5
73
330
2
100
AcDbSymbolTableRecord
100
AcDbLayerTableRecord
  2
FORMAT
 70
     0
 62
     7
  6
Continuous
370
    -3
390
F
  0
LAYER
  5
74
330
2
100
AcDbSymbolTableRecord
100
AcDbLayerTableRecord
  2
YARDIMCI_GEOMETRI
 70
     0
 62
    -6
  6
Continuous
290
     0
370
    -3
390
F
  0
LAYER
  5
75
330
2
100
AcDbSymbolTableRecord
100
AcDbLayerTableRecord
  2
SAYFA_CERCEVESI
 70
     0
 62
     7
  6
Continuous
370
    25
390
F
  0
LAYER
  5
76
330
2
100
AcDbSymbolTableRecord
100
AcDbLayerTableRecord
  2
ANTET
 70
     0
 62
     7
  6
Continuous
370
    -3
390
F
  0
LAYER
  5
77
330
2
100
AcDbSymbolTableRecord
100
AcDbLayerTableRecord
  2
OLCU
 70
     0
 62
   150
  6
Continuous
370
    -3
390
F
  0
LAYER
  5
78
330
2
100
AcDbSymbolTableRecord
100
AcDbLayerTableRecord
  2
METIN
 70
     0
 62
    96
  6
Continuous
370
    -3
390
F
  0
LAYER
  5
79
330
2
100
AcDbSymbolTableRecord
100
AcDbLayerTableRecord
  2
BALON
 70
     0
 62
     5
  6
Continuous
370
    -3
390
F
  0
LAYER
  5
7A
330
2
100
AcDbSymbolTableRecord
100
AcDbLayerTableRecord
  2
VURGU
 70
     0
 62
     7
  6
Continuous
370
    -3
390
F
  0
LAYER
  5
7B
330
2
100
AcDbSymbolTableRecord
100
AcDbLayerTableRecord
  2
SILIK
 70
     0
 62
     7
  6
Continuous
370
    -3
390
F
  0
LAYER
  5
7C
330
2
100
AcDbSymbolTableRecord
100
AcDbLayerTableRecord
  2
MODEL
 70
     0
 62
     7
  6
Continuous
370
    -3
390
F
  0
LAYER
  5
7D
330
2
100
AcDbSymbolTableRecord
100
AcDbLayerTableRecord
  2
DETAYLANDıRMA
 70
     0
 62
   190
  6
Continuous
370
    -3
390
F
  0
LAYER
  5
7E
330
2
100
AcDbSymbolTableRecord
100
AcDbLayerTableRecord
  2
TOLERANS
 70
     0
 62
   230
  6
Continuous
370
    -3
390
F
  0
LAYER
  5
7F
330
2
100
AcDbSymbolTableRecord
100
AcDbLayerTableRecord
  2
MERKEZ_CIZGILERI
 70
     0
 62
    30
  6
Continuous
370
    -3
390
F
  0
LAYER
  5
80
330
2
100
AcDbSymbolTableRecord
100
AcDbLayerTableRecord
  2
KESIT-DETAY_CIZGILERI
 70
     0
 62
     7
  6
Continuous
370
    -3
390
F
  0
LAYER
  5
81
330
2
100
AcDbSymbolTableRecord
100
AcDbLayerTableRecord
  2
\U+041E\U+0421\U+0415\U+0412\U+042B\U+0415
 70
     0
 62
     7
  6
Continuous
370
    -3
390
F
  0
LAYER
  5
82
330
2
100
AcDbSymbolTableRecord
100
AcDbLayerTableRecord
  2
\U+0412\U+041E\U+0414\U+042F\U+041D\U+042B\U+0415_\U+0417\U+041D\U+0410\U+041A\U+0418
 70
     0
 62
    11
  6
Continuous
370
    -3
390
F
  0
ENDTAB
  0
TABLE
  2
STYLE
  5
3
330
0
100
AcDbSymbolTable
 70
     1
  0
STYLE
  5
11
330
3
100
AcDbSymbolTableRecord
100
AcDbTextStyleTableRecord
  2
Standard
 70
     0
 40
0.0
 41
1.0
 50
0.0
 71
     0
 42
3.5
  3
txt
  4

  0
ENDTAB
  0
TABLE
  2
VIEW
  5
6
330
0
100
AcDbSymbolTable
 70
     0
  0
ENDTAB
  0
TABLE
  2
UCS
  5
7
330
0
100
AcDbSymbolTable
 70
     0
  0
ENDTAB
  0
TABLE
  2
APPID
  5
9
330
0
100
AcDbSymbolTable
 70
     1
  0
APPID
  5
12
330
9
100
AcDbSymbolTableRecord
100
AcDbRegAppTableRecord
  2
ACAD
 70
     0
  0
ENDTAB
  0
TABLE
  2
DIMSTYLE
  5
A
330
0
100
AcDbSymbolTable
 70
     1
100
AcDbDimStyleTable
  0
DIMSTYLE
105
27
330
A
100
AcDbSymbolTableRecord
100
AcDbDimStyleTableRecord
  2
ISO-25
 70
     0
 41
2.5
 42
0.625
 43
3.75
 44
1.25
 73
     0
 74
     0
 77
     1
 78
     8
140
2.5
141
2.5
143
0.0393700787
147
0.625
171
     3
172
     1
178
     0
271
     2
272
     2
274
     3
278
    44
283
     0
284
     8
340
11
  0
ENDTAB
  0
TABLE
  2
BLOCK_RECORD
  5
1
330
0
100
AcDbSymbolTable
 70
     4
  0
BLOCK_RECORD
  5
1F
330
1
100
AcDbSymbolTableRecord
100
AcDbBlockTableRecord
  2
*Model_Space
340
22
  0
BLOCK_RECORD
  5
1B
330
1
100
AcDbSymbolTableRecord
100
AcDbBlockTableRecord
  2
*Paper_Space
340
1E
  0
BLOCK_RECORD
  5
23
330
1
100
AcDbSymbolTableRecord
100
AcDbBlockTableRecord
  2
*Paper_Space0
340
26
  0
BLOCK_RECORD
  5
8E
330
1
100
AcDbSymbolTableRecord
100
AcDbBlockTableRecord
  2
SW_CENTERMARKSYMBOL_0
340
0
102
{BLKREFS
331
99
102
}
  0
BLOCK_RECORD
  5
C8
330
1
100
AcDbSymbolTableRecord
100
AcDbBlockTableRecord
  2
SW_CENTERMARKSYMBOL_1
340
0
102
{BLKREFS
331
D3
102
}
  0
BLOCK_RECORD
  5
D4
330
1
100
AcDbSymbolTableRecord
100
AcDbBlockTableRecord
  2
SW_CENTERMARKSYMBOL_2
340
0
102
{BLKREFS
331
DF
102
}
  0
ENDTAB
  0
ENDSEC
  0
SECTION
  2
BLOCKS
  0
BLOCK
  5
20
330
1F
100
AcDbEntity
  8
0
100
AcDbBlockBegin
  2
*Model_Space
 70
     0
 10
0.0
 20
0.0
 30
0.0
  3
*Model_Space
  1

  0
ENDBLK
  5
21
330
1F
100
AcDbEntity
  8
0
100
AcDbBlockEnd
  0
BLOCK
  5
1C
330
1B
100
AcDbEntity
 67
     1
  8
0
100
AcDbBlockBegin
  2
*Paper_Space
 70
     0
 10
0.0
 20
0.0
 30
0.0
  3
*Paper_Space
  1

  0
ENDBLK
  5
1D
330
1B
100
AcDbEntity
 67
     1
  8
0
100
AcDbBlockEnd
  0
BLOCK
  5
24
330
23
100
AcDbEntity
  8
0
100
AcDbBlockBegin
  2
*Paper_Space0
 70
     0
 10
0.0
 20
0.0
 30
0.0
  3
*Paper_Space0
  1

  0
ENDBLK
  5
25
330
23
100
AcDbEntity
  8
0
100
AcDbBlockEnd
  0
BLOCK
  5
8F
330
8E
100
AcDbEntity
  8
0
100
AcDbBlockBegin
  2
SW_CENTERMARKSYMBOL_0
 70
     0
 10
0.0
 20
0.0
 30
0.0
  3
SW_CENTERMARKSYMBOL_0
  1

  0
LINE
  5
91
330
8E
100
AcDbEntity
  8
FORMAT
 62
     0
100
AcDbLine
 10
0.0
 20
0.0
 30
0.0
 11
0.0
 21
2.5
 31
0.0
  0
LINE
  5
92
330
8E
100
AcDbEntity
  8
FORMAT
 62
     0
100
AcDbLine
 10
0.0
 20
0.0
 30
0.0
 11
-2.5
 21
0.0
 31
0.0
  0
LINE
  5
93
330
8E
100
AcDbEntity
  8
FORMAT
 62
     0
100
AcDbLine
 10
0.0
 20
0.0
 30
0.0
 11
0.0
 21
-2.5
 31
0.0
  0
LINE
  5
94
330
8E
100
AcDbEntity
  8
FORMAT
 62
     0
100
AcDbLine
 10
0.0
 20
0.0
 30
0.0
 11
2.5
 21
0.0
 31
0.0
  0
LINE
  5
95
330
8E
100
AcDbEntity
  8
FORMAT
 62
     0
100
AcDbLine
 10
0.0
 20
5.0
 30
0.0
 11
0.0
 21
33.5
 31
0.0
  0
LINE
  5
96
330
8E
100
AcDbEntity
  8
FORMAT
 62
     0
100
AcDbLine
 10
-5.0
 20
0.0
 30
0.0
 11
-33.5
 21
0.0
 31
0.0
  0
LINE
  5
97
330
8E
100
AcDbEntity
  8
FORMAT
 62
     0
100
AcDbLine
 10
0.0
 20
-5.0
 30
0.0
 11
0.0
 21
-33.5
 31
0.0
  0
LINE
  5
98
330
8E
100
AcDbEntity
  8
FORMAT
 62
     0
100
AcDbLine
 10
5.0
 20
0.0
 30
0.0
 11
33.5
 21
0.0
 31
0.0
  0
ENDBLK
  5
90
330
8E
100
AcDbEntity
  8
0
100
AcDbBlockEnd
  0
BLOCK
  5
C9
330
C8
100
AcDbEntity
  8
0
100
AcDbBlockBegin
  2
SW_CENTERMARKSYMBOL_1
 70
     0
 10
0.0
 20
0.0
 30
0.0
  3
SW_CENTERMARKSYMBOL_1
  1

  0
LINE
  5
CB
330
C8
100
AcDbEntity
  8
FORMAT
 62
     0
100
AcDbLine
 10
0.0
 20
0.0
 30
0.0
 11
0.0
 21
2.5
 31
0.0
  0
LINE
  5
CC
330
C8
100
AcDbEntity
  8
FORMAT
 62
     0
100
AcDbLine
 10
0.0
 20
0.0
 30
0.0
 11
-2.5
 21
0.0
 31
0.0
  0
LINE
  5
CD
330
C8
100
AcDbEntity
  8
FORMAT
 62
     0
100
AcDbLine
 10
0.0
 20
0.0
 30
0.0
 11
0.0
 21
-2.5
 31
0.0
  0
LINE
  5
CE
330
C8
100
AcDbEntity
  8
FORMAT
 62
     0
100
AcDbLine
 10
0.0
 20
0.0
 30
0.0
 11
2.5
 21
0.0
 31
0.0
  0
LINE
  5
CF
330
C8
100
AcDbEntity
  8
FORMAT
 62
     0
100
AcDbLine
 10
0.0
 20
5.0
 30
0.0
 11
0.0
 21
9.5
 31
0.0
  0
LINE
  5
D0
330
C8
100
AcDbEntity
  8
FORMAT
 62
     0
100
AcDbLine
 10
-5.0
 20
0.0
 30
0.0
 11
-9.5
 21
0.0
 31
0.0
  0
LINE
  5
D1
330
C8
100
AcDbEntity
  8
FORMAT
 62
     0
100
AcDbLine
 10
0.0
 20
-5.0
 30
0.0
 11
0.0
 21
-9.5
 31
0.0
  0
LINE
  5
D2
330
C8
100
AcDbEntity
  8
FORMAT
 62
     0
100
AcDbLine
 10
5.0
 20
0.0
 30
0.0
 11
9.5
 21
0.0
 31
0.0
  0
ENDBLK
  5
CA
330
C8
100
AcDbEntity
  8
0
100
AcDbBlockEnd
  0
BLOCK
  5
D5
330
D4
100
AcDbEntity
  8
0
100
AcDbBlockBegin
  2
SW_CENTERMARKSYMBOL_2
 70
     0
 10
0.0
 20
0.0
 30
0.0
  3
SW_CENTERMARKSYMBOL_2
  1

  0
LINE
  5
D7
330
D4
100
AcDbEntity
  8
FORMAT
 62
     0
100
AcDbLine
 10
0.0
 20
0.0
 30
0.0
 11
0.0
 21
2.5
 31
0.0
  0
LINE
  5
D8
330
D4
100
AcDbEntity
  8
FORMAT
 62
     0
100
AcDbLine
 10
0.0
 20
0.0
 30
0.0
 11
-2.5
 21
0.0
 31
0.0
  0
LINE
  5
D9
330
D4
100
AcDbEntity
  8
FORMAT
 62
     0
100
AcDbLine
 10
0.0
 20
0.0
 30
0.0
 11
0.0
 21
-2.5
 31
0.0
  0
LINE
  5
DA
330
D4
100
AcDbEntity
  8
FORMAT
 62
     0
100
AcDbLine
 10
0.0
 20
0.0
 30
0.0
 11
2.5
 21
0.0
 31
0.0
  0
LINE
  5
DB
330
D4
100
AcDbEntity
  8
FORMAT
 62
     0
100
AcDbLine
 10
0.0
 20
5.0
 30
0.0
 11
0.0
 21
9.5
 31
0.0
  0
LINE
  5
DC
330
D4
100
AcDbEntity
  8
FORMAT
 62
     0
100
AcDbLine
 10
-5.0
 20
0.0
 30
0.0
 11
-9.5
 21
0.0
 31
0.0
  0
LINE
  5
DD
330
D4
100
AcDbEntity
  8
FORMAT
 62
     0
100
AcDbLine
 10
0.0
 20
-5.0
 30
0.0
 11
0.0
 21
-9.5
 31
0.0
  0
LINE
  5
DE
330
D4
100
AcDbEntity
  8
FORMAT
 62
     0
100
AcDbLine
 10
5.0
 20
0.0
 30
0.0
 11
9.5
 21
0.0
 31
0.0
  0
ENDBLK
  5
D6
330
D4
100
AcDbEntity
  8
0
100
AcDbBlockEnd
  0
ENDSEC
  0
SECTION
  2
ENTITIES
  0
LINE
  5
83
330
1F
100
AcDbEntity
  8
0
  6
Continuous
 62
     7
370
    25
100
AcDbLine
 10
129.1701403815
 20
87.4704961641
 30
0.0
 11
129.1701403815
 21
59.6754170122
 31
0.0
  0
LINE
  5
84
330
1F
100
AcDbEntity
  8
0
  6
Continuous
 62
     7
370
    25
100
AcDbLine
 10
143.1701403815
 20
59.6754170122
 30
0.0
 11
143.1701403815
 21
87.4728537082
 31
0.0
  0
LINE
  5
85
330
1F
100
AcDbEntity
  8
0
  6
Continuous
 62
     7
370
    25
100
AcDbLine
 10
129.1701403815
 20
87.4760792712
 30
0.0
 11
129.1701403815
 21
87.4704961641
 31
0.0
  0
LINE
  5
86
330
1F
100
AcDbEntity
  8
0
  6
Continuous
 62
     7
370
    25
100
AcDbLine
 10
143.1701403815
 20
87.4728537082
 30
0.0
 11
143.1701403815
 21
87.4760792712
 31
0.0
  0
CIRCLE
  5
87
330
1F
100
AcDbEntity
  8
0
  6
Continuous
 62
     7
370
    25
100
AcDbCircle
 10
136.1701403815
 20
117.6754170122
 30
0.0
 40
31.0
  0
CIRCLE
  5
88
330
1F
100
AcDbEntity
  8
0
  6
Continuous
 62
     7
370
    25
100
AcDbCircle
 10
136.1701403815
 20
117.6754170122
 30
0.0
 40
25.0
  0
LINE
  5
89
330
1F
100
AcDbEntity
  8
0
  6
Continuous
 62
     7
370
    25
100
AcDbLine
 10
136.1701403815
 20
59.6754170122
 30
0.0
 11
143.1701403815
 21
59.6754170122
 31
0.0
  0
LINE
  5
8A
330
1F
100
AcDbEntity
  8
0
  6
Continuous
 62
     7
370
    25
100
AcDbLine
 10
129.1701403815
 20
59.6754170122
 30
0.0
 11
136.1701403815
 21
59.6754170122
 31
0.0
  0
CIRCLE
  5
8B
330
1F
100
AcDbEntity
  8
0
  6
Continuous
 62
     7
370
    25
100
AcDbCircle
 10
136.1701403815
 20
117.6754170122
 30
0.0
 40
24.10940039245047
  0
CIRCLE
  5
8C
330
1F
100
AcDbEntity
  8
0
  6
Continuous
 62
     7
370
    25
100
AcDbCircle
 10
136.1701403815
 20
117.6754170122
 30
0.0
 40
16.89059960754955
  0
CIRCLE
  5
8D
330
1F
100
AcDbEntity
  8
0
  6
Continuous
 62
     7
370
    25
100
AcDbCircle
 10
136.1701403815
 20
117.6754170122
 30
0.0
 40
15.99999999999999
  0
INSERT
  5
99
330
1F
100
AcDbEntity
  8
FORMAT
 62
     7
100
AcDbBlockReference
  2
SW_CENTERMARKSYMBOL_0
 10
136.1701403815
 20
117.6754170122
 30
0.0
  0
ARC
  5
9A
330
1F
100
AcDbEntity
  8
0
  6
Continuous
 62
     7
370
    25
100
AcDbCircle
 10
20.5457249715
 20
146.6754170122
 30
0.0
 40
2.0
100
AcDbArc
 50
33.690067526
 51
90.0
  0
ARC
  5
9B
330
1F
100
AcDbEntity
  8
0
  6
Continuous
 62
     7
370
    25
100
AcDbCircle
 10
20.5457249715
 20
88.6754170122
 30
0.0
 40
1.999999999999991
100
AcDbArc
 50
270.0
 51
326.309932474
  0
LINE
  5
9C
330
1F
100
AcDbEntity
  8
0
  6
Continuous
 62
     7
370
    25
100
AcDbLine
 10
20.5457249715
 20
148.6754170122
 30
0.0
 11
-45.3839075116
 21
148.6754170122
 31
0.0
  0
LINE
  5
9D
330
1F
100
AcDbEntity
  8
0
  6
Continuous
 62
     7
370
    25
100
AcDbLine
 10
-30.3994513243
 20
86.6754170122
 30
0.0
 11
20.5457249715
 21
86.6754170122
 31
0.0
  0
LINE
  5
9E
330
1F
100
AcDbEntity
  8
0
  6
Continuous
 62
     7
370
    25
100
AcDbLine
 10
-45.3839075116
 20
86.6754170122
 30
0.0
 11
-44.3839075116
 21
86.6754170122
 31
0.0
  0
LINE
  5
9F
330
1F
100
AcDbEntity
  8
0
  6
Continuous
 62
     7
370
    25
100
AcDbLine
 10
22.2098255601
 20
87.5660166198
 30
0.0
 11
27.0223594167
 21
94.7848174047
 31
0.0
  0
LINE
  5
A0
330
1F
100
AcDbEntity
  8
0
  6
Continuous
 62
     7
370
    25
100
AcDbLine
 10
27.0223594167
 20
140.5660166198
 30
0.0
 11
22.2098255601
 21
147.7848174047
 31
0.0
  0
ARC
  5
A1
330
1F
100
AcDbEntity
  8
0
  6
Continuous
 62
     7
370
    25
100
AcDbCircle
 10
28.6864600054
 20
141.6754170122
 30
0.0
 40
1.999999999999991
100
AcDbArc
 50
213.690067526
 51
270.0
  0
ARC
  5
A2
330
1F
100
AcDbEntity
  8
0
  6
Continuous
 62
     7
370
    25
100
AcDbCircle
 10
28.6864600054
 20
93.6754170122
 30
0.0
 40
1.999999999999999
100
AcDbArc
 50
90.0
 51
146.309932474
  0
LINE
  5
A3
330
1F
100
AcDbEntity
  8
0
  6
Continuous
 62
     7
370
    25
100
AcDbLine
 10
80.6160924884
 20
139.6754170122
 30
0.0
 11
28.6864600054
 21
139.6754170122
 31
0.0
  0
LINE
  5
A4
330
1F
100
AcDbEntity
  8
0
  6
Continuous
 62
     7
370
    25
100
AcDbLine
 10
79.6116288022
 20
95.6754170122
 30
0.0
 11
80.6160924884
 21
95.6754170122
 31
0.0
  0
LINE
  5
A5
330
1F
100
AcDbEntity
  8
0
  6
Continuous
 62
     7
370
    25
100
AcDbLine
 10
28.6864600054
 20
95.6754170122
 30
0.0
 11
65.6160924884
 21
95.6754170122
 31
0.0
  0
LINE
  5
A6
330
1F
100
AcDbEntity
  8
0
  6
Continuous
 62
     7
370
    25
100
AcDbLine
 10
65.6160924884
 20
95.6754170122
 30
0.0
 11
65.6160924884
 21
76.6754170122
 31
0.0
  0
LINE
  5
A7
330
1F
100
AcDbEntity
  8
0
  6
Continuous
 62
     7
370
    25
100
AcDbLine
 10
79.6160924884
 20
76.6754170122
 30
0.0
 11
79.6160924884
 21
95.6768232585
 31
0.0
  0
LINE
  5
A8
330
1F
100
AcDbEntity
  8
0
  6
Continuous
 62
     7
370
    25
100
AcDbLine
 10
-44.3839075116
 20
86.6754170122
 30
0.0
 11
-44.3839075116
 21
59.6754170122
 31
0.0
  0
LINE
  5
A9
330
1F
100
AcDbEntity
  8
0
  6
Continuous
 62
     7
370
    25
100
AcDbLine
 10
-30.3839075116
 20
59.6754170122
 30
0.0
 11
-30.3839075116
 21
86.6789079194
 31
0.0
  0
LINE
  5
AA
330
1F
100
AcDbEntity
  8
0
  6
Continuous
 62
     7
370
    25
100
AcDbLine
 10
-45.3839075116
 20
148.6754170122
 30
0.0
 11
-45.3839075116
 21
86.6754170122
 31
0.0
  0
SPLINE
  5
AB
330
1F
100
AcDbEntity
  8
0
  6
Continuous
 62
     7
370
    25
100
AcDbSpline
210
0.0
220
0.0
230
1.0
 70
     8
 71
     3
 72
    27
 73
    23
 74
     0
 42
0.00000001
 43
0.00000001
 40
0.0
 40
0.0
 40
0.0
 40
0.0
 40
0.0108504886896606
 40
0.0645027765961394
 40
0.1160322403625599
 40
0.169014596690985
 40
0.2213335182312857
 40
0.275111773606339
 40
0.3284288242343587
 40
0.3833072694211027
 40
0.4362790705909655
 40
0.4908596116188458
 40
0.5426206249775116
 40
0.5958969070698401
 40
0.6474926849973052
 40
0.7005244671475307
 40
0.753228719830969
 40
0.8074191567313886
 40
0.8608047514164523
 40
0.9157815938724152
 40
0.9575031454595538
 40
1.0
 40
1.0
 40
1.0
 40
1.0
 10
-30.39945132432379
 20
86.67891555025615
 30
0.0
 10
-30.39463851999278
 20
86.67783243802502
 30
0.0
 10
-30.36602789687314
 20
86.67139367307425
 30
0.0
 10
-30.50346144750577
 20
86.70247566540058
 30
0.0
 10
-30.81754546096308
 20
86.77126094587854
 30
0.0
 10
-31.32107164034166
 20
86.87530164863503
 30
0.0
 10
-31.99221969458434
 20
87.00146350886145
 30
0.0
 10
-32.81432082739182
 20
87.13659167460351
 30
0.0
 10
-33.77892923245044
 20
87.26731443658808
 30
0.0
 10
-34.8440052574258
 20
87.37621721326197
 30
0.0
 10
-35.99246740982484
 20
87.45153642281888
 30
0.0
 10
-37.16081192239164
 20
87.48292519187895
 30
0.0
 10
-38.33703404301626
 20
87.46837438895996
 30
0.0
 10
-39.46454336304043
 20
87.411203190184
 30
0.0
 10
-40.54156568609213
 20
87.31722572033387
 30
0.0
 10
-41.52773713249812
 20
87.19784122196539
 30
0.0
 10
-42.41454331033448
 20
87.0635189828662
 30
0.0
 10
-43.1630598744866
 20
86.93044283409357
 30
0.0
 10
-43.75896143281655
 20
86.81182225589635
 30
0.0
 10
-44.1373009582013
 20
86.73055117040197
 30
0.0
 10
-44.34781412573154
 20
86.68360350003785
 30
0.0
 10
-44.37180277089992
 20
86.67816253775226
 30
0.0
 10
-44.38390751155242
 20
86.67541701223782
 30
0.0
  0
LINE
  5
AC
330
1F
100
AcDbEntity
  8
0
  6
Continuous
 62
     7
370
    25
100
AcDbLine
 10
80.6160924884
 20
139.6754170122
 30
0.0
 11
80.6160924884
 21
95.6754170122
 31
0.0
  0
SPLINE
  5
AD
330
1F
100
AcDbEntity
  8
0
  6
Continuous
 62
     7
370
    25
100
AcDbSpline
210
0.0
220
0.0
230
1.0
 70
     8
 71
     3
 72
    27
 73
    23
 74
     0
 42
0.00000001
 43
0.00000001
 40
0.0
 40
0.0
 40
0.0
 40
0.0
 40
0.0026160515322937
 40
0.0556780802630228
 40
0.1059001752218258
 40
0.1575133375507164
 40
0.2090209802033005
 40
0.2619079544976709
 40
0.3154822174549664
 40
0.3706154887078399
 40
0.4239207236444
 40
0.4789230844907439
 40
0.5297639097279437
 40
0.5821307240020357
 40
0.6322524185796022
 40
0.68372159775016
 40
0.7358729474126224
 40
0.7894372308498404
 40
0.8432928032808181
 40
0.8987738759031308
 40
0.9486847287901331
 40
1.0
 40
1.0
 40
1.0
 40
1.0
 10
79.61162880216317
 20
95.67683004621122
 30
0.0
 10
79.61310505830275
 20
95.67636275173682
 30
0.0
 10
79.64452458762551
 20
95.66641720634856
 30
0.0
 10
79.52943211861397
 20
95.70309990414326
 30
0.0
 10
79.25674494345513
 20
95.78796692074872
 30
0.0
 10
78.79714280225616
 20
95.92419193728732
 30
0.0
 10
78.17505859172778
 20
96.09413744081876
 30
0.0
 10
77.39641280702489
 20
96.28334694515468
 30
0.0
 10
76.4668004151873
 20
96.473820465972
 30
0.0
 10
75.42078359049118
 20
96.6404199130199
 30
0.0
 10
74.27943250709168
 20
96.7633211280587
 30
0.0
 10
73.11522627803778
 20
96.82382997711885
 30
0.0
 10
71.94377966438256
 20
96.81834952974006
 30
0.0
 10
70.8275993348421
 20
96.7517393415934
 30
0.0
 10
69.7586338458818
 20
96.6320814504102
 30
0.0
 10
68.76847837459876
 20
96.4737267116443
 30
0.0
 10
67.86084937537085
 20
96.28893673247585
 30
0.0
 10
67.06969588615443
 20
96.09766132345403
 30
0.0
 10
66.41661949265996
 20
95.9191316777799
 30
0.0
 10
65.95557200609628
 20
95.78198044100674
 30
0.0
 10
65.6689317979172
 20
95.69233125005371
 30
0.0
 10
65.63386775194589
 20
95.68110700018558
 30
0.0
 10
65.61609248844758
 20
95.6754170122378
 30
0.0
  0
LINE
  5
AE
330
1F
100
AcDbEntity
  8
0
  6
Continuous
 62
     7
370
    25
100
AcDbLine
 10
65.6160924884
 20
76.6754170122
 30
0.0
 11
79.6160924884
 21
76.6754170122
 31
0.0
  0
LINE
  5
AF
330
1F
100
AcDbEntity
  8
0
  6
Continuous
 62
     7
370
    25
100
AcDbLine
 10
-44.3839075116
 20
59.6754170122
 30
0.0
 11
-30.3839075116
 21
59.6754170122
 31
0.0
  0
LINE
  5
B0
330
1F
100
AcDbEntity
  8
0
  6
Continuous
 62
     1
370
    25
100
AcDbLine
 10
22.2098255601
 20
147.7848174047
 30
0.0
 11
22.2098255601
 21
87.5660166198
 31
0.0
  0
LINE
  5
B1
330
1F
100
AcDbEntity
  8
0
  6
Continuous
 62
     1
370
    25
100
AcDbLine
 10
20.5457249715
 20
148.6754170122
 30
0.0
 11
20.5457249715
 21
86.6754170122
 31
0.0
  0
LINE
  5
B2
330
1F
100
AcDbEntity
  8
0
  6
Continuous
 62
     1
370
    25
100
AcDbLine
 10
27.0223594167
 20
140.5660166198
 30
0.0
 11
27.0223594167
 21
94.7848174047
 31
0.0
  0
LINE
  5
B3
330
1F
100
AcDbEntity
  8
0
  6
Continuous
 62
     1
370
    25
100
AcDbLine
 10
28.6864600054
 20
139.6754170122
 30
0.0
 11
28.6864600054
 21
95.6754170122
 31
0.0
  0
ARC
  5
B4
330
1F
100
AcDbEntity
  8
0
  6
Continuous
 62
     7
370
    25
100
AcDbCircle
 10
165.1701403815
 20
219.2749494394
 30
0.0
 40
2.000000000000019
100
AcDbArc
 50
303.690067526
 51
0.0
  0
ARC
  5
B5
330
1F
100
AcDbEntity
  8
0
  6
Continuous
 62
     7
370
    25
100
AcDbCircle
 10
107.1701403815
 20
219.2749494394
 30
0.0
 40
2.000000000000003
100
AcDbArc
 50
180.0
 51
236.309932474
  0
LINE
  5
B6
330
1F
100
AcDbEntity
  8
0
  6
Continuous
 62
     7
370
    25
100
AcDbLine
 10
167.1701403815
 20
219.2749494394
 30
0.0
 11
167.1701403815
 21
285.2045819224
 31
0.0
  0
LINE
  5
B7
330
1F
100
AcDbEntity
  8
0
  6
Continuous
 62
     7
370
    25
100
AcDbLine
 10
105.1701403815
 20
285.2045819224
 30
0.0
 11
105.1701403815
 21
219.2749494394
 31
0.0
  0
LINE
  5
B8
330
1F
100
AcDbEntity
  8
0
  6
Continuous
 62
     7
370
    25
100
AcDbLine
 10
106.060739989
 20
217.6108488507
 30
0.0
 11
113.2795407739
 21
212.7983149941
 31
0.0
  0
LINE
  5
B9
330
1F
100
AcDbEntity
  8
0
  6
Continuous
 62
     7
370
    25
100
AcDbLine
 10
159.060739989
 20
212.7983149941
 30
0.0
 11
166.2795407739
 21
217.6108488507
 31
0.0
  0
ARC
  5
BA
330
1F
100
AcDbEntity
  8
0
  6
Continuous
 62
     7
370
    25
100
AcDbCircle
 10
160.1701403815
 20
211.1342144054
 30
0.0
 40
2.0
100
AcDbArc
 50
123.690067526
 51
180.0
  0
ARC
  5
BB
330
1F
100
AcDbEntity
  8
0
  6
Continuous
 62
     7
370
    25
100
AcDbCircle
 10
112.1701403815
 20
211.1342144054
 30
0.0
 40
1.999999999999986
100
AcDbArc
 50
0.0
 51
56.309932474
  0
LINE
  5
BC
330
1F
100
AcDbEntity
  8
0
  6
Continuous
 62
     7
370
    25
100
AcDbLine
 10
158.1701403815
 20
159.2045819224
 30
0.0
 11
158.1701403815
 21
211.1342144054
 31
0.0
  0
LINE
  5
BD
330
1F
100
AcDbEntity
  8
0
  6
Continuous
 62
     7
370
    25
100
AcDbLine
 10
114.1701403815
 20
211.1342144054
 30
0.0
 11
114.1701403815
 21
159.2045819224
 31
0.0
  0
CIRCLE
  5
BE
330
1F
100
AcDbEntity
  8
0
  6
Continuous
 62
     7
370
    25
100
AcDbCircle
 10
136.1701403815
 20
277.2045819224
 30
0.0
 40
7.0
  0
CIRCLE
  5
BF
330
1F
100
AcDbEntity
  8
0
  6
Continuous
 62
     7
370
    25
100
AcDbCircle
 10
136.1701403815
 20
277.2045819224
 30
0.0
 40
5.000000000000057
  0
CIRCLE
  5
C0
330
1F
100
AcDbEntity
  8
0
  6
Continuous
 62
     7
370
    25
100
AcDbCircle
 10
136.1701403815
 20
167.2045819224
 30
0.0
 40
7.0
  0
CIRCLE
  5
C1
330
1F
100
AcDbEntity
  8
0
  6
Continuous
 62
     7
370
    25
100
AcDbCircle
 10
136.1701403815
 20
167.2045819224
 30
0.0
 40
5.0
  0
LINE
  5
C2
330
1F
100
AcDbEntity
  8
0
  6
Continuous
 62
     7
370
    25
100
AcDbLine
 10
167.1701403815
 20
285.2045819224
 30
0.0
 11
105.1701403815
 21
285.2045819224
 31
0.0
  0
LINE
  5
C3
330
1F
100
AcDbEntity
  8
0
  6
Continuous
 62
     7
370
    25
100
AcDbLine
 10
158.1701403815
 20
159.2045819224
 30
0.0
 11
114.1701403815
 21
159.2045819224
 31
0.0
  0
LINE
  5
C4
330
1F
100
AcDbEntity
  8
0
  6
Continuous
 62
     1
370
    25
100
AcDbLine
 10
166.2795407739
 20
217.6108488507
 30
0.0
 11
106.060739989
 21
217.6108488507
 31
0.0
  0
LINE
  5
C5
330
1F
100
AcDbEntity
  8
0
  6
Continuous
 62
     1
370
    25
100
AcDbLine
 10
167.1701403815
 20
219.2749494394
 30
0.0
 11
105.1701403815
 21
219.2749494394
 31
0.0
  0
LINE
  5
C6
330
1F
100
AcDbEntity
  8
0
  6
Continuous
 62
     1
370
    25
100
AcDbLine
 10
159.060739989
 20
212.7983149941
 30
0.0
 11
113.2795407739
 21
212.7983149941
 31
0.0
  0
LINE
  5
C7
330
1F
100
AcDbEntity
  8
0
  6
Continuous
 62
     1
370
    25
100
AcDbLine
 10
158.1701403815
 20
211.1342144054
 30
0.0
 11
114.1701403815
 21
211.1342144054
 31
0.0
  0
INSERT
  5
D3
330
1F
100
AcDbEntity
  8
FORMAT
 62
     7
100
AcDbBlockReference
  2
SW_CENTERMARKSYMBOL_1
 10
136.1701403815
 20
167.2045819224
 30
0.0
  0
INSERT
  5
DF
330
1F
100
AcDbEntity
  8
FORMAT
 62
     7
100
AcDbBlockReference
  2
SW_CENTERMARKSYMBOL_2
 10
136.1701403815
 20
277.2045819224
 30
0.0
  0
ARC
  5
E0
330
1F
100
AcDbEntity
  8
0
  6
Continuous
 62
     7
370
    25
100
AcDbCircle
 10
241.1471964386
 20
88.6754170122
 30
0.0
 40
1.999999999999986
100
AcDbArc
 50
213.690067526
 51
270.0
  0
ARC
  5
E1
330
1F
100
AcDbEntity
  8
0
  6
Continuous
 62
     7
370
    25
100
AcDbCircle
 10
241.1471964386
 20
146.6754170122
 30
0.0
 40
2.0
100
AcDbArc
 50
90.0
 51
146.309932474
  0
LINE
  5
E2
330
1F
100
AcDbEntity
  8
0
  6
Continuous
 62
     7
370
    25
100
AcDbLine
 10
306.0768289216
 20
86.6754170122
 30
0.0
 11
307.0768289216
 21
86.6754170122
 31
0.0
  0
LINE
  5
E3
330
1F
100
AcDbEntity
  8
0
  6
Continuous
 62
     7
370
    25
100
AcDbLine
 10
241.1471964386
 20
86.6754170122
 30
0.0
 11
292.0923727344
 21
86.6754170122
 31
0.0
  0
LINE
  5
E4
330
1F
100
AcDbEntity
  8
0
  6
Continuous
 62
     7
370
    25
100
AcDbLine
 10
307.0768289216
 20
148.6754170122
 30
0.0
 11
241.1471964386
 21
148.6754170122
 31
0.0
  0
LINE
  5
E5
330
1F
100
AcDbEntity
  8
0
  6
Continuous
 62
     7
370
    25
100
AcDbLine
 10
239.4830958499
 20
147.7848174047
 30
0.0
 11
234.6705619933
 21
140.5660166198
 31
0.0
  0
LINE
  5
E6
330
1F
100
AcDbEntity
  8
0
  6
Continuous
 62
     7
370
    25
100
AcDbLine
 10
234.6705619933
 20
94.7848174047
 30
0.0
 11
239.4830958499
 21
87.5660166198
 31
0.0
  0
ARC
  5
E7
330
1F
100
AcDbEntity
  8
0
  6
Continuous
 62
     7
370
    25
100
AcDbCircle
 10
233.0064614046
 20
93.6754170122
 30
0.0
 40
2.000000000000011
100
AcDbArc
 50
33.690067526
 51
90.0
  0
ARC
  5
E8
330
1F
100
AcDbEntity
  8
0
  6
Continuous
 62
     7
370
    25
100
AcDbCircle
 10
233.0064614046
 20
141.6754170122
 30
0.0
 40
2.000000000000003
100
AcDbArc
 50
270.0
 51
326.309932474
  0
LINE
  5
E9
330
1F
100
AcDbEntity
  8
0
  6
Continuous
 62
     7
370
    25
100
AcDbLine
 10
196.0768289216
 20
95.6754170122
 30
0.0
 11
233.0064614046
 21
95.6754170122
 31
0.0
  0
LINE
  5
EA
330
1F
100
AcDbEntity
  8
0
  6
Continuous
 62
     7
370
    25
100
AcDbLine
 10
181.0768289216
 20
95.6754170122
 30
0.0
 11
182.0812926079
 21
95.6754170122
 31
0.0
  0
LINE
  5
EB
330
1F
100
AcDbEntity
  8
0
  6
Continuous
 62
     7
370
    25
100
AcDbLine
 10
233.0064614046
 20
139.6754170122
 30
0.0
 11
181.0768289216
 21
139.6754170122
 31
0.0
  0
LINE
  5
EC
330
1F
100
AcDbEntity
  8
0
  6
Continuous
 62
     7
370
    25
100
AcDbLine
 10
182.0768289216
 20
95.6768232585
 30
0.0
 11
182.0768289216
 21
76.6754170122
 31
0.0
  0
LINE
  5
ED
330
1F
100
AcDbEntity
  8
0
  6
Continuous
 62
     7
370
    25
100
AcDbLine
 10
196.0768289216
 20
76.6754170122
 30
0.0
 11
196.0768289216
 21
95.6754170122
 31
0.0
  0
LINE
  5
EE
330
1F
100
AcDbEntity
  8
0
  6
Continuous
 62
     7
370
    25
100
AcDbLine
 10
292.0768289216
 20
86.6789079194
 30
0.0
 11
292.0768289216
 21
59.6754170122
 31
0.0
  0
LINE
  5
EF
330
1F
100
AcDbEntity
  8
0
  6
Continuous
 62
     7
370
    25
100
AcDbLine
 10
306.0768289216
 20
59.6754170122
 30
0.0
 11
306.0768289216
 21
86.6754170122
 31
0.0
  0
LINE
  5
F0
330
1F
100
AcDbEntity
  8
0
  6
Continuous
 62
     7
370
    25
100
AcDbLine
 10
307.0768289216
 20
117.6754170122
 30
0.0
 11
307.0768289216
 21
148.6754170122
 31
0.0
  0
LINE
  5
F1
330
1F
100
AcDbEntity
  8
0
  6
Continuous
 62
     7
370
    25
100
AcDbLine
 10
307.0768289216
 20
86.6754170122
 30
0.0
 11
307.0768289216
 21
117.6754170122
 31
0.0
  0
SPLINE
  5
F2
330
1F
100
AcDbEntity
  8
0
  6
Continuous
 62
     7
370
    25
100
AcDbSpline
210
0.0
220
0.0
230
1.0
 70
     8
 71
     3
 72
    26
 73
    22
 74
     0
 42
0.00000001
 43
0.00000001
 40
0.0
 40
0.0
 40
0.0
 40
0.0
 40
0.0520119307244438
 40
0.1055552356702394
 40
0.1575608217763849
 40
0.2110321398329989
 40
0.2638311388510876
 40
0.3181243786794722
 40
0.3715056042350138
 40
0.4264841788573856
 40
0.4789697794835973
 40
0.5330387199377111
 40
0.5845399880312993
 40
0.6375127009098074
 40
0.6894750923013577
 40
0.7428782205075224
 40
0.7960163780748127
 40
0.8506858448906882
 40
0.9039103313112556
 40
0.9587432586077584
 40
1.0
 40
1.0
 40
1.0
 40
1.0
 10
306.0768289216217
 20
86.67541701223782
 30
0.0
 10
306.0586476913893
 20
86.67954826491031
 30
0.0
 10
306.0217499255263
 20
86.68793240569079
 30
0.0
 10
305.725328849759
 20
86.75363977219341
 30
0.0
 10
305.2576527103171
 20
86.85160494999406
 30
0.0
 10
304.6205470274011
 20
86.97417718617638
 30
0.0
 10
303.8219427684144
 20
87.10955192379234
 30
0.0
 10
302.8899666755185
 20
87.24165363388417
 30
0.0
 10
301.8349368828336
 20
87.3569809880683
 30
0.0
 10
300.7096447473704
 20
87.43934314079978
 30
0.0
 10
299.5314528877822
 20
87.48032324405665
 30
0.0
 10
298.3646370383291
 20
87.47515011724413
 30
0.0
 10
297.2158751095204
 20
87.42561909716945
 30
0.0
 10
296.1341878207322
 20
87.33905778390208
 30
0.0
 10
295.1222291039598
 20
87.22321267982657
 30
0.0
 10
294.2179863353477
 20
87.09149417843345
 30
0.0
 10
293.4349603037112
 20
86.95622882966943
 30
0.0
 10
292.809754663464
 20
86.83410319630181
 30
0.0
 10
292.3632605944458
 20
86.7394908041261
 30
0.0
 10
292.1099082586632
 20
86.6829182456341
 30
0.0
 10
292.0976401351905
 20
86.68011789815867
 30
0.0
 10
292.0923727343931
 20
86.67891555025615
 30
0.0
  0
LINE
  5
F3
330
1F
100
AcDbEntity
  8
0
  6
Continuous
 62
     7
370
    25
100
AcDbLine
 10
181.0768289216
 20
117.6754170122
 30
0.0
 11
181.0768289216
 21
139.6754170122
 31
0.0
  0
LINE
  5
F4
330
1F
100
AcDbEntity
  8
0
  6
Continuous
 62
     7
370
    25
100
AcDbLine
 10
181.0768289216
 20
95.6754170122
 30
0.0
 11
181.0768289216
 21
117.6754170122
 31
0.0
  0
SPLINE
  5
F5
330
1F
100
AcDbEntity
  8
0
  6
Continuous
 62
     7
370
    25
100
AcDbSpline
210
0.0
220
0.0
230
1.0
 70
     8
 71
     3
 72
    26
 73
    22
 74
     0
 42
0.00000001
 43
0.00000001
 40
0.0
 40
0.0
 40
0.0
 40
0.0
 40
0.0511331702582496
 40
0.1037933502116472
 40
0.1549148013619596
 40
0.2074417768953688
 40
0.2600413000836435
 40
0.3140886931757431
 40
0.3679559167468816
 40
0.4234801630950363
 40
0.4756383272155059
 40
0.5294418203860601
 40
0.5795304303166956
 40
0.6310342995611095
 40
0.6819291980775327
 40
0.7341721164585325
 40
0.7874318086195184
 40
0.8422062946748826
 40
0.8958262704989401
 40
0.9511281357176448
 40
1.0
 40
1.0
 40
1.0
 40
1.0
 10
196.0768289216217
 20
95.6754170122378
 30
0.0
 10
196.0591301595399
 20
95.68108103779447
 30
0.0
 10
196.0232040903799
 20
95.69257823589979
 30
0.0
 10
195.7350018396177
 20
95.78272912031224
 30
0.0
 10
195.2815387585096
 20
95.9173590374482
 30
0.0
 10
194.6625889999869
 20
96.08725215116262
 30
0.0
 10
193.8832298329561
 20
96.27744787974362
 30
0.0
 10
192.9633095874678
 20
96.46714356349833
 30
0.0
 10
191.9123311652191
 20
96.63636439064783
 30
0.0
 10
190.7855604006508
 20
96.75953874291592
 30
0.0
 10
189.6064395436898
 20
96.82307302883845
 30
0.0
 10
188.4500130753021
 20
96.81991063610141
 30
0.0
 10
187.3184823405033
 20
96.75417876046843
 30
0.0
 10
186.2569586350383
 20
96.63731298977046
 30
0.0
 10
185.2585336630458
 20
96.47901948307536
 30
0.0
 10
184.3515296075819
 20
96.29560761456136
 30
0.0
 10
183.552037572318
 20
96.10331825112412
 30
0.0
 10
182.8989501403213
 20
95.92525340461708
 30
0.0
 10
182.4186518157503
 20
95.78283003160226
 30
0.0
 10
182.1264347074721
 20
95.69128379753404
 30
0.0
 10
182.0957077799399
 20
95.68144554513255
 30
0.0
 10
182.0812926079061
 20
95.67683004621122
 30
0.0
  0
LINE
  5
F6
330
1F
100
AcDbEntity
  8
0
  6
Continuous
 62
     7
370
    25
100
AcDbLine
 10
182.0768289216
 20
76.6754170122
 30
0.0
 11
196.0768289216
 21
76.6754170122
 31
0.0
  0
LINE
  5
F7
330
1F
100
AcDbEntity
  8
0
  6
Continuous
 62
     7
370
    25
100
AcDbLine
 10
292.0768289216
 20
59.6754170122
 30
0.0
 11
306.0768289216
 21
59.6754170122
 31
0.0
  0
LINE
  5
F8
330
1F
100
AcDbEntity
  8
0
  6
Continuous
 62
     1
370
    25
100
AcDbLine
 10
239.4830958499
 20
117.6754170122
 30
0.0
 11
239.4830958499
 21
147.7848174047
 31
0.0
  0
LINE
  5
F9
330
1F
100
AcDbEntity
  8
0
  6
Continuous
 62
     1
370
    25
100
AcDbLine
 10
239.4830958499
 20
87.5660166198
 30
0.0
 11
239.4830958499
 21
117.6754170122
 31
0.0
  0
LINE
  5
FA
330
1F
100
AcDbEntity
  8
0
  6
Continuous
 62
     1
370
    25
100
AcDbLine
 10
241.1471964386
 20
117.6754170122
 30
0.0
 11
241.1471964386
 21
148.6754170122
 31
0.0
  0
LINE
  5
FB
330
1F
100
AcDbEntity
  8
0
  6
Continuous
 62
     1
370
    25
100
AcDbLine
 10
241.1471964386
 20
86.6754170122
 30
0.0
 11
241.1471964386
 21
117.6754170122
 31
0.0
  0
LINE
  5
FC
330
1F
100
AcDbEntity
  8
0
  6
Continuous
 62
     1
370
    25
100
AcDbLine
 10
234.6705619933
 20
117.6754170122
 30
0.0
 11
234.6705619933
 21
140.5660166198
 31
0.0
  0
LINE
  5
FD
330
1F
100
AcDbEntity
  8
0
  6
Continuous
 62
     1
370
    25
100
AcDbLine
 10
234.6705619933
 20
94.7848174047
 30
0.0
 11
234.6705619933
 21
117.6754170122
 31
0.0
  0
LINE
  5
FE
330
1F
100
AcDbEntity
  8
0
  6
Continuous
 62
     1
370
    25
100
AcDbLine
 10
233.0064614046
 20
117.6754170122
 30
0.0
 11
233.0064614046
 21
139.6754170122
 31
0.0
  0
LINE
  5
FF
330
1F
100
AcDbEntity
  8
0
  6
Continuous
 62
     1
370
    25
100
AcDbLine
 10
233.0064614046
 20
95.6754170122
 30
0.0
 11
233.0064614046
 21
117.6754170122
 31
0.0
  0
ARC
  5
100
330
1F
100
AcDbEntity
  8
0
  6
Continuous
 62
     7
370
    25
100
AcDbCircle
 10
107.1701403815
 20
0.6022525066
 30
0.0
 40
2.0
100
AcDbArc
 50
123.690067526
 51
180.0
  0
ARC
  5
101
330
1F
100
AcDbEntity
  8
0
  6
Continuous
 62
     7
370
    25
100
AcDbCircle
 10
165.1701403815
 20
0.6022525066
 30
0.0
 40
2.000000000000008
100
AcDbArc
 50
0.0
 51
56.309932474
  0
LINE
  5
102
330
1F
100
AcDbEntity
  8
0
  6
Continuous
 62
     7
370
    25
100
AcDbLine
 10
105.1701403815
 20
0.6022525066
 30
0.0
 11
105.1701403815
 21
-65.3273799764
 31
0.0
  0
LINE
  5
103
330
1F
100
AcDbEntity
  8
0
  6
Continuous
 62
     7
370
    25
100
AcDbLine
 10
167.1701403815
 20
-65.3273799764
 30
0.0
 11
167.1701403815
 21
0.6022525066
 31
0.0
  0
LINE
  5
104
330
1F
100
AcDbEntity
  8
0
  6
Continuous
 62
     7
370
    25
100
AcDbLine
 10
166.2795407739
 20
2.2663530953
 30
0.0
 11
159.060739989
 21
7.0788869519
 31
0.0
  0
LINE
  5
105
330
1F
100
AcDbEntity
  8
0
  6
Continuous
 62
     7
370
    25
100
AcDbLine
 10
113.2795407739
 20
7.0788869519
 30
0.0
 11
106.060739989
 21
2.2663530953
 31
0.0
  0
ARC
  5
106
330
1F
100
AcDbEntity
  8
0
  6
Continuous
 62
     7
370
    25
100
AcDbCircle
 10
112.1701403815
 20
8.7429875405
 30
0.0
 40
1.999999999999991
100
AcDbArc
 50
303.690067526
 51
0.0
  0
ARC
  5
107
330
1F
100
AcDbEntity
  8
0
  6
Continuous
 62
     7
370
    25
100
AcDbCircle
 10
160.1701403815
 20
8.7429875405
 30
0.0
 40
2.000000000000007
100
AcDbArc
 50
180.0
 51
236.309932474
  0
LINE
  5
108
330
1F
100
AcDbEntity
  8
0
  6
Continuous
 62
     7
370
    25
100
AcDbLine
 10
114.1701403815
 20
60.6726200236
 30
0.0
 11
114.1701403815
 21
8.7429875405
 31
0.0
  0
LINE
  5
109
330
1F
100
AcDbEntity
  8
0
  6
Continuous
 62
     7
370
    25
100
AcDbLine
 10
158.1701403815
 20
8.7429875405
 30
0.0
 11
158.1701403815
 21
60.6726200236
 31
0.0
  0
LINE
  5
10A
330
1F
100
AcDbEntity
  8
0
  6
Continuous
 62
     7
370
    25
100
AcDbLine
 10
105.1701403815
 20
-65.3273799764
 30
0.0
 11
167.1701403815
 21
-65.3273799764
 31
0.0
  0
LINE
  5
10B
330
1F
100
AcDbEntity
  8
0
  6
Continuous
 62
     7
370
    25
100
AcDbLine
 10
114.1701403815
 20
60.6726200236
 30
0.0
 11
158.1701403815
 21
60.6726200236
 31
0.0
  0
LINE
  5
10C
330
1F
100
AcDbEntity
  8
0
  6
Continuous
 62
     1
370
    25
100
AcDbLine
 10
106.060739989
 20
2.2663530953
 30
0.0
 11
166.2795407739
 21
2.2663530953
 31
0.0
  0
LINE
  5
10D
330
1F
100
AcDbEntity
  8
0
  6
Continuous
 62
     1
370
    25
100
AcDbLine
 10
105.1701403815
 20
0.6022525066
 30
0.0
 11
167.1701403815
 21
0.6022525066
 31
0.0
  0
LINE
  5
10E
330
1F
100
AcDbEntity
  8
0
  6
Continuous
 62
     1
370
    25
100
AcDbLine
 10
113.2795407739
 20
7.0788869519
 30
0.0
 11
159.060739989
 21
7.0788869519
 31
0.0
  0
LINE
  5
10F
330
1F
100
AcDbEntity
  8
0
  6
Continuous
 62
     1
370
    25
100
AcDbLine
 10
114.1701403815
 20
8.7429875405
 30
0.0
 11
158.1701403815
 21
8.7429875405
 31
0.0
  0
LINE
  5
110
330
1F
100
AcDbEntity
  8
0
  6
Continuous
 62
     7
370
    25
100
AcDbLine
 10
201.9069180564
 20
-1.5260678504
 30
0.0
 11
201.9069180564
 21
-23.8976658873
 31
0.0
  0
LINE
  5
111
330
1F
100
AcDbEntity
  8
0
  6
Continuous
 62
     7
370
    25
100
AcDbLine
 10
215.9069180564
 20
-23.8976658873
 30
0.0
 11
215.9069180564
 21
-1.52621719
 31
0.0
  0
LINE
  5
112
330
1F
100
AcDbEntity
  8
0
  6
Continuous
 62
     7
370
    25
100
AcDbLine
 10
265.3680943727
 20
26.6621049988
 30
0.0
 11
218.7488041628
 21
53.5748483831
 31
0.0
  0
LINE
  5
113
330
1F
100
AcDbEntity
  8
0
  6
Continuous
 62
     7
370
    25
100
AcDbLine
 10
187.7513234511
 20
-0.1201810845
 30
0.0
 11
201.9069180564
 21
-8.2920319074
 31
0.0
  0
LINE
  5
114
330
1F
100
AcDbEntity
  8
0
  6
Continuous
 62
     7
370
    25
100
AcDbLine
 10
215.9069180564
 20
-16.3740598766
 30
0.0
 11
234.370613661
 21
-27.0329244688
 31
0.0
  0
SPLINE
  5
115
330
1F
100
AcDbEntity
  8
0
  6
Continuous
 62
     7
370
    25
100
AcDbSpline
210
0.0
220
0.0
230
1.0
 70
     8
 71
     3
 72
    29
 73
    25
 74
     0
 42
0.00000001
 43
0.00000001
 40
0.0
 40
0.0
 40
0.0
 40
0.0
 40
0.0139948481775463
 40
0.0624758353302357
 40
0.1110005962371315
 40
0.1595738918344033
 40
0.208199274827942
 40
0.2568784456588716
 40
0.3056103564610533
 40
0.354390005793953
 40
0.4032068862242153
 40
0.4520417054515701
 40
0.500857067442707
 40
0.5496102728222693
 40
0.5982461752357172
 40
0.6466986506286417
 40
0.6948952132102589
 40
0.7427652593540744
 40
0.7902512235390475
 40
0.8373204450668189
 40
0.8839746316121896
 40
0.9302541958106816
 40
0.9762363178466759
 40
0.9999999999999999
 40
0.9999999999999999
 40
0.9999999999999999
 40
0.9999999999999999
 10
270.5286649400866
 20
0.4773813616256667
 30
0.0
 10
270.5799397391148
 20
0.6346607046894704
 30
0.0
 10
270.8088408218584
 20
1.336787531178903
 30
0.0
 10
271.1470708541012
 20
2.581332693580462
 30
0.0
 10
271.5395868568314
 20
4.204848149503958
 30
0.0
 10
271.8557491023814
 20
5.815428752020391
 30
0.0
 10
272.1005835630211
 20
7.40826473830253
 30
0.0
 10
272.2710708135929
 20
8.97835496685857
 30
0.0
 10
272.3665421485179
 20
10.52077987217951
 30
0.0
 10
272.3858949430353
 20
12.03060773292922
 30
0.0
 10
272.3283567278654
 20
13.50287453923453
 30
0.0
 10
272.1933257272631
 20
14.93246338015248
 30
0.0
 10
271.9804954498999
 20
16.31414732029829
 30
0.0
 10
271.6899230437132
 20
17.64258850186648
 30
0.0
 10
271.3221102639226
 20
18.91242797508814
 30
0.0
 10
270.8781124457407
 20
20.11828750370178
 30
0.0
 10
270.3596358805559
 20
21.25491381922527
 30
0.0
 10
269.7690474779353
 20
22.31731283924731
 30
0.0
 10
269.1094431945057
 20
23.30114722579787
 30
0.0
 10
268.3841144902505
 20
24.20222134506955
 30
0.0
 10
267.5978227528275
 20
25.01914546507487
 30
0.0
 10
266.7511077086688
 20
25.74387197072167
 30
0.0
 10
266.0023605212712
 20
26.29233491617594
 30
0.0
 10
265.5173869997697
 20
26.5639575112436
 30
0.0
 10
265.3521475742344
 20
26.65650434025898
 30
0.0
  0
SPLINE
  5
116
330
1F
100
AcDbEntity
  8
0
  6
Continuous
 62
     7
370
    25
100
AcDbSpline
210
0.0
220
0.0
230
1.0
 70
     8
 71
     3
 72
    29
 73
    25
 74
     0
 42
0.00000001
 43
0.00000001
 40
0.0
 40
0.0
 40
0.0
 40
0.0
 40
0.0318680974770341
 40
0.0777858064343543
 40
0.123760003403476
 40
0.1699128395613032
 40
0.2163461943133944
 40
0.2631323555059895
 40
0.310308648976084
 40
0.3578769487861929
 40
0.4058082054403562
 40
0.4540509313722226
 40
0.5025415359012916
 40
0.5512141060498961
 40
0.6000078364897384
 40
0.6488714089689479
 40
0.6977646085025733
 40
0.7466508965308184
 40
0.7955124299545473
 40
0.844338806185972
 40
0.8931248500189102
 40
0.9418691829826412
 40
0.9905731004710724
 40
1.0
 40
1.0
 40
1.0
 40
1.0
 10
234.4507966947511
 20
-27.06626087018969
 30
0.0
 10
234.6709483081788
 20
-27.19069686100985
 30
0.0
 10
235.2083092473011
 20
-27.49442863860902
 30
0.0
 10
236.1189511935229
 20
-27.87352342521252
 30
0.0
 10
237.1693449810375
 20
-28.21596865718852
 30
0.0
 10
238.2618481189743
 20
-28.46220764144751
 30
0.0
 10
239.3915398733426
 20
-28.61570299965253
 30
0.0
 10
240.5563561651659
 20
-28.67446221067136
 30
0.0
 10
241.7530440986247
 20
-28.63796707062669
 30
0.0
 10
242.9780729081969
 20
-28.50552347952788
 30
0.0
 10
244.2273282271728
 20
-28.27694885426223
 30
0.0
 10
245.4962665195697
 20
-27.95258312697453
 30
0.0
 10
246.7800449017621
 20
-27.53339504129767
 30
0.0
 10
248.0737013828827
 20
-27.02096162529637
 30
0.0
 10
249.372308033137
 20
-26.4174019816549
 30
0.0
 10
250.6710757393363
 20
-25.7252745754369
 30
0.0
 10
251.9653535089944
 20
-24.94753214576324
 30
0.0
 10
253.2506937640602
 20
-24.08735358087809
 30
0.0
 10
254.5229515113828
 20
-23.14828592136277
 30
0.0
 10
255.7778912397779
 20
-22.13338105296679
 30
0.0
 10
257.0126459001093
 20
-21.04810424441096
 30
0.0
 10
258.2198297249137
 20
-19.88962621903111
 30
0.0
 10
259.0899212231713
 20
-19.00976603956332
 30
0.0
 10
259.546313210456
 20
-18.4994197145271
 30
0.0
 10
259.6203249245639
 20
-18.41665838795506
 30
0.0
  0
LINE
  5
117
330
1F
100
AcDbEntity
  8
0
  6
Continuous
 62
     7
370
    25
100
AcDbLine
 10
303.3446242954
 20
-5.6533024231
 30
0.0
 11
272.3649767857
 21
12.230867409
 31
0.0
  0
LINE
  5
118
330
1F
100
AcDbEntity
  8
0
  6
Continuous
 62
     7
370
    25
100
AcDbLine
 10
250.3644902076
 20
-25.8739695179
 30
0.0
 11
279.688663987
 21
-42.8024547078
 31
0.0
  0
LINE
  5
119
330
1F
100
AcDbEntity
  8
0
  6
Continuous
 62
     7
370
    25
100
AcDbLine
 10
279.688663987
 20
-38.9436476666
 30
0.0
 11
279.688663987
 21
-54.9189182355
 31
0.0
  0
LINE
  5
11A
330
1F
100
AcDbEntity
  8
0
  6
Continuous
 62
     7
370
    25
100
AcDbLine
 10
293.688663987
 20
-54.9189182355
 30
0.0
 11
293.688663987
 21
-38.9436505362
 31
0.0
  0
LWPOLYLINE
  5
11B
330
1F
100
AcDbEntity
  8
0
  6
Continuous
 62
     7
370
    25
100
AcDbPolyline
 90
       50
 70
   128
 43
0.0
 10
203.9571705881
 20
-21.040237496
 10
204.6307676037
 20
-20.6982971112
 10
205.3745788915
 20
-20.4088902732
 10
206.1763910908
 20
-20.1767690344
 10
207.0230384673
 20
-20.005744819
 10
207.9006190946
 20
-19.89862584
 10
208.794723123
 20
-19.857170988
 10
209.6906693892
 20
-19.8820609505
 10
210.5737464801
 20
-19.9728870351
 10
211.4294542944
 20
-20.1281578799
 10
212.2437421334
 20
-20.345323942
 10
213.0032394133
 20
-20.6208193606
 10
213.6954752097
 20
-20.9501205086
 10
214.3090830301
 20
-21.3278202703
 10
214.833987451
 20
-21.7477168259
 10
215.2615695563
 20
-22.2029154857
 10
215.5848084597
 20
-22.6859419002
 10
215.7983965872
 20
-23.1888647891
 10
215.8988268278
 20
-23.7034261724
 10
215.8844501197
 20
-24.2211769664
 10
215.755502528
 20
-24.7336157175
 10
215.5141013686
 20
-25.2323281955
 10
215.1642104419
 20
-25.7091255553
 10
214.7115749472
 20
-26.1561787974
 10
214.1636271469
 20
-26.56614732
 10
213.5293643286
 20
-26.9322994512
 10
212.8192010703
 20
-27.2486229833
 10
212.0447982331
 20
-27.5099238924
 10
211.2188714901
 20
-27.7119116249
 10
210.3549825357
 20
-27.8512695479
 10
209.4673164026
 20
-27.9257094081
 10
208.5704485441
 20
-27.9340089051
 10
207.6791055057
 20
-27.8760317613
 10
206.8079231154
 20
-27.7527299598
 10
205.9712061641
 20
-27.5661281128
 10
205.1826935208
 20
-27.3192902175
 10
204.4553325415
 20
-27.0162693453
 10
203.8010664733
 20
-26.6620410906
 10
203.2306383468
 20
-26.2624218714
 10
202.7534145763
 20
-25.8239734243
 10
202.3772311628
 20
-25.3538950608
 10
202.1082650276
 20
-24.8599054545
 10
201.9509325872
 20
-24.3501159011
 10
201.9078172358
 20
-23.8328971309
 10
201.9796269265
 20
-23.316741862
 10
202.1651825459
 20
-22.8101253495
 10
202.4614372761
 20
-22.3213662225
 10
202.8635266225
 20
-21.8584898925
 10
203.3648482891
 20
-21.429096776
 10
203.9571705881
 20
-21.040237496
  0
LWPOLYLINE
  5
11C
330
1F
100
AcDbEntity
  8
0
  6
Continuous
 62
     7
370
    25
100
AcDbPolyline
 90
       42
 70
   128
 43
0.0
 10
205.3713841505
 20
-21.8566456078
 10
205.9525158297
 20
-21.5690052158
 10
206.602896193
 20
-21.3359466562
 10
207.307280876
 20
-21.1629326242
 10
208.0491596987
 20
-21.0540184221
 10
208.8111436503
 20
-21.0117569063
 10
209.5753724729
 20
-21.0371386511
 10
210.3239332904
 20
-21.1295687299
 10
211.0392804719
 20
-21.2868806598
 10
211.7046468857
 20
-21.5053871828
 10
212.3044369069
 20
-21.7799666909
 10
212.824591966
 20
-22.1041832734
 10
213.252920069
 20
-22.4704375682
 10
213.5793815683
 20
-22.8701448851
 10
213.7963244832
 20
-23.2939364235
 10
213.8986638555
 20
-23.7318788688
 10
213.884000937
 20
-24.1737072213
 10
213.7526794142
 20
-24.6090653989
 10
213.5077773523
 20
-25.0277489749
 10
213.1550350479
 20
-25.4199443611
 10
212.7027204818
 20
-25.7764588302
 10
212.1614355241
 20
-26.088935985
 10
211.5438674353
 20
-26.350051626
 10
210.864491488
 20
-26.5536854239
 10
210.1392316787
 20
-26.6950643749
 10
209.3850874825
 20
-26.7708746763
 10
208.6197354003
 20
-26.779339399
 10
207.8611146361
 20
-26.7202601369
 10
207.1270066177
 20
-26.5950216579
 10
206.4346182148
 20
-26.4065594459
 10
205.8001784248
 20
-26.1592908953
 10
205.2385579786
 20
-25.8590117713
 10
204.7629207835
 20
-25.5127603622
 10
204.3844153722
 20
-25.1286525075
 10
204.1119135907
 20
-24.7156913698
 10
203.9518026498
 20
-24.283556408
 10
203.9078354143
 20
-23.8423764996
 10
203.9810424389
 20
-23.4024925275
 10
204.169707813
 20
-22.9742149993
 10
204.4694093801
 20
-22.5675823772
 10
204.8731223895
 20
-22.1921257853
 10
205.3713841505
 20
-21.8566456078
  0
SPLINE
  5
11D
330
1F
100
AcDbEntity
  8
0
  6
Continuous
 62
     7
370
    25
100
AcDbSpline
210
0.0
220
0.0
230
1.0
 70
     8
 71
     3
 72
    12
 73
     8
 74
     0
 42
0.00000001
 43
0.00000001
 40
0.0
 40
0.0
 40
0.0
 40
0.0
 40
0.2080358814974994
 40
0.4221969112370303
 40
0.6302074157057969
 40
0.8440805142776402
 40
1.0
 40
1.0
 40
1.0
 40
1.0
 10
203.957170588132
 20
1.00636442495193
 30
0.0
 10
203.6996559870222
 20
0.8461836336326883
 30
0.0
 10
203.1770448470381
 20
0.5211058881607056
 30
0.0
 10
202.5892495422927
 20
-0.0057857641477914
 30
0.0
 10
202.1682540331106
 20
-0.5535816706455331
 30
0.0
 10
201.9345427332696
 20
-1.061697161376451
 30
0.0
 10
201.9281022843512
 20
-1.388636830279497
 30
0.0
 10
201.9253867310226
 20
-1.526487796476937
 30
0.0
  0
SPLINE
  5
11E
330
1F
100
AcDbEntity
  8
0
  6
Continuous
 62
     7
370
    25
100
AcDbSpline
210
0.0
220
0.0
230
1.0
 70
     8
 71
     3
 72
    22
 73
    18
 74
     0
 42
0.00000001
 43
0.00000001
 40
0.0
 40
0.0
 40
0.0
 40
0.0
 40
0.0334745208222159
 40
0.104564498601228
 40
0.1777363526876602
 40
0.2483659941198661
 40
0.3211406394375377
 40
0.3901558840195948
 40
0.461191503309864
 40
0.5299864321956477
 40
0.600696048917389
 40
0.6709689561392308
 40
0.7432234583989873
 40
0.8144048289957705
 40
0.8877078805059139
 40
0.9433370674226575
 40
1.0
 40
1.0
 40
1.0
 40
1.0
 10
215.882222403668
 20
-1.526137656222542
 30
0.0
 10
215.8875159186669
 20
-1.403148221660548
 30
0.0
 10
215.9040512932773
 20
-1.018965618225384
 30
0.0
 10
215.719632676826
 20
-0.3738990892882716
 30
0.0
 10
215.342630677124
 20
0.3617625686384469
 30
0.0
 10
214.7654944824526
 20
1.029061900330481
 30
0.0
 10
214.0352875103565
 20
1.586632545709967
 30
0.0
 10
213.1594294614667
 20
2.029501074126363
 30
0.0
 10
212.1852927524066
 20
2.34094361763978
 30
0.0
 10
211.1166040639839
 20
2.526562802296637
 30
0.0
 10
209.9941644094622
 20
2.586226411519155
 30
0.0
 10
208.8248209827594
 20
2.52549548029185
 30
0.0
 10
207.6546751124469
 20
2.352417401235588
 30
0.0
 10
206.501605807814
 20
2.076405019626421
 30
0.0
 10
205.5002931968401
 20
1.740877843322683
 30
0.0
 10
204.641443050355
 20
1.378604177891949
 30
0.0
 10
204.1866569746952
 20
1.131203521296495
 30
0.0
 10
203.957170588132
 20
1.00636442495193
 30
0.0
  0
LWPOLYLINE
  5
11F
330
1F
100
AcDbEntity
  8
0
  6
Continuous
 62
     7
370
    25
100
AcDbPolyline
 90
      104
 70
   128
 43
0.0
 10
181.3297535902
 20
14.0730079161
 10
181.370526087
 20
15.6397121003
 10
181.4926919013
 20
17.2476629648
 10
181.695796568
 20
18.890878827
 10
181.9790845246
 20
20.5632468158
 10
182.3415019212
 20
22.2585456125
 10
182.7817005413
 20
23.9704685942
 10
183.2980428171
 20
25.6926472949
 10
183.8886079214
 20
27.4186750969
 10
184.5511989133
 20
29.1421310633
 10
185.2833509107
 20
30.8566038247
 10
186.0823402602
 20
32.5557154298
 10
186.9451946688
 20
34.2331450719
 10
187.8687042616
 20
35.8826526025
 10
188.8494335221
 20
37.4981017453
 10
189.8837340731
 20
39.0734829233
 10
190.9677582486
 20
40.6029356152
 10
192.0974734075
 20
42.0807701563
 10
193.2686769352
 20
43.5014889053
 10
194.4770118776
 20
44.859806695
 10
195.7179831495
 20
46.150670494
 10
196.986974256
 20
47.3692782042
 10
198.2792644671
 20
48.5110965249
 10
199.5900463782
 20
49.5718778169
 10
200.9144437945
 20
50.5476759042
 10
202.2475298707
 20
51.4348607538
 10
203.5843454389
 20
52.2301319798
 10
204.9199174576
 20
52.9305311209
 10
206.249277511
 20
53.5334526464
 10
207.5674802924
 20
54.0366536486
 10
208.8696220009
 20
54.4382621868
 10
210.1508585838
 20
54.7367842507
 10
211.4064237569
 20
54.9311093187
 10
212.6316467353
 20
55.0205144888
 10
213.8219696091
 20
55.0046671679
 10
214.9729642988
 20
54.883626309
 10
216.0803490288
 20
54.6578421921
 10
217.1400042551
 20
54.328154749
 10
218.1479879906
 20
53.8957904385
 10
219.1005504696
 20
53.3623576843
 10
219.9941480972
 20
52.7298408914
 10
220.8254566315
 20
52.0005930636
 10
221.5913835501
 20
51.1773270509
 10
222.2890795546
 20
50.2631054569
 10
222.91594917
 20
49.2613292459
 10
223.4696604002
 20
48.1757250912
 10
223.9481534031
 20
47.0103315116
 10
224.3496481532
 20
45.7694838478
 10
224.6726510637
 20
44.4577981346
 10
224.9159605426
 20
43.0801539289
 10
225.0786714626
 20
41.6416761577
 10
225.1601785285
 20
40.1477160529
 10
225.1601785285
 20
38.603831244
 10
225.0786714626
 20
37.015765084
 10
224.9159605426
 20
35.3894252834
 10
224.6726510637
 20
33.7308619329
 10
224.3496481532
 20
32.0462449973
 10
223.9481534031
 20
30.341841362
 10
223.4696604002
 20
28.6239915207
 10
222.91594917
 20
26.8990859875
 10
222.2890795546
 20
25.1735415244
 10
221.5913835501
 20
23.45377727
 10
220.8254566315
 20
21.7461908603
 10
219.9941480972
 20
20.057134629
 10
219.1005504696
 20
18.3928919761
 10
218.1479879906
 20
16.7596539937
 10
217.1400042551
 20
15.1634964343
 10
216.0803490288
 20
13.6103571088
 10
214.9729642988
 20
12.1060137976
 10
213.8219696091
 20
10.6560627565
 10
212.6316467353
 20
9.2658978988
 10
211.4064237569
 20
7.9406907289
 10
210.1508585838
 20
6.6853711046
 10
208.8696220009
 20
5.5046088973
 10
207.5674802924
 20
4.40279662
 10
206.249277511
 20
3.3840330867
 10
204.9199174576
 20
2.4521081647
 10
203.5843454389
 20
1.6104886759
 10
202.2475298707
 20
0.8623055001
 10
200.9144437945
 20
0.2103419279
 10
199.5900463782
 20
-0.3429766935
 10
198.2792644671
 20
-0.7955919825
 10
196.986974256
 20
-1.1458201804
 10
195.7179831494
 20
-1.3923584153
 10
194.4770118776
 20
-1.5342895489
 10
193.2686769352
 20
-1.5710855879
 10
192.0974734075
 20
-1.5026096487
 10
190.9677582486
 20
-1.3291164663
 10
189.8837340731
 20
-1.0512514467
 10
188.8494335221
 20
-0.6700482661
 10
187.8687042616
 20
-0.1869250253
 10
186.9451946688
 20
0.3963210256
 10
186.0823402602
 20
1.0775201728
 10
185.2833509107
 20
1.8541383109
 10
184.5511989133
 20
2.7232863693
 10
183.8886079214
 20
3.6817310601
 10
183.2980428171
 20
4.7259069062
 10
182.7817005413
 20
5.8519295049
 10
182.3415019212
 20
7.0556099781
 10
181.9790845246
 20
8.3324705554
 10
181.695796568
 20
9.6777612316
 10
181.4926919013
 20
11.086477437
 10
181.370526087
 20
12.5533786547
 10
181.3297535902
 20
14.0730079161
  0
LWPOLYLINE
  5
120
330
1F
100
AcDbEntity
  8
0
  6
Continuous
 62
     7
370
    25
100
AcDbPolyline
 90
       94
 70
   128
 43
0.0
 10
185.5723942773
 20
16.5222322515
 10
185.612723853
 20
17.9236256078
 10
185.7335285657
 20
19.3651882646
 10
185.9342572111
 20
20.8403427023
 10
186.2139939104
 20
22.3423581294
 10
186.5714622892
 20
23.864381194
 10
187.0050313014
 20
25.3994672541
 10
187.512722671
 20
26.940612064
 10
188.0922199186
 20
28.4807837333
 10
188.7408789313
 20
30.0129548122
 10
189.4557400267
 20
31.5301343552
 10
190.2335414577
 20
33.0253998202
 10
191.0707342947
 20
34.4919286538
 10
191.9634986188
 20
35.9230294212
 10
192.9077609511
 20
37.312172338
 10
193.8992128393
 20
38.6530190636
 10
194.9333305157
 20
39.9394516219
 10
196.0053955387
 20
41.1656003162
 10
197.1105163212
 20
42.3258705113
 10
198.2436504508
 20
43.4149681604
 10
199.3996276963
 20
44.4279239607
 10
200.5731735986
 20
45.3601160272
 10
201.758933537
 20
46.2072909813
 10
202.9514971607
 20
46.9655833581
 10
204.1454230756
 20
47.6315332433
 10
205.3352636715
 20
48.2021020603
 10
206.5155899787
 20
48.6746864345
 10
207.681016439
 20
49.0471300718
 10
208.8262254787
 20
49.3177335973
 10
209.9459917716
 20
49.4852623092
 10
211.035206081
 20
49.5489518124
 10
212.0888985718
 20
49.5085115062
 10
213.1022614868
 20
49.3641259106
 10
214.0706710836
 20
49.1164538239
 10
214.9897087311
 20
48.766625317
 10
215.8551810715
 20
48.3162365771
 10
216.6631391529
 20
47.7673426248
 10
217.4098964479
 20
47.1224479374
 10
218.0920456743
 20
46.3844950212
 10
218.7064743415
 20
45.5568509863
 10
219.2503789526
 20
44.6432921825
 10
219.7212777955
 20
43.6479869691
 10
220.1170222669
 20
42.5754766955
 10
220.4358066753
 20
41.4306549802
 10
220.6761764808
 20
40.218745382
 10
220.8370349311
 20
38.9452775664
 10
220.9176480658
 20
37.6160620751
 10
220.9176480658
 20
36.2371638133
 10
220.8370349311
 20
34.8148743778
 10
220.6761764808
 20
33.3556833488
 10
220.4358066753
 20
31.8662486804
 10
220.1170222669
 20
30.3533663215
 10
219.7212777955
 20
28.8239392071
 10
219.2503789526
 20
27.2849457624
 10
218.7064743415
 20
25.7434080615
 10
218.0920456743
 20
24.2063597874
 10
217.4098964479
 20
22.6808141389
 10
216.6631391529
 20
21.1737318307
 10
215.8551810715
 20
19.6919893339
 10
214.9897087311
 20
18.2423474996
 10
214.0706710836
 20
16.8314207109
 10
213.1022614868
 20
15.4656467033
 10
212.0888985718
 20
14.1512571902
 10
211.035206081
 20
12.8942494296
 10
209.9459917716
 20
11.7003588594
 10
208.8262254787
 20
10.5750329287
 10
207.681016439
 20
9.5234062415
 10
206.5155899787
 20
8.5502771291
 10
205.3352636715
 20
7.6600857565
 10
204.1454230756
 20
6.8568938628
 10
202.9514971607
 20
6.1443662284
 10
201.758933537
 20
5.5257539533
 10
200.5731735986
 20
5.0038796237
 10
199.3996276963
 20
4.5811244323
 10
198.2436504508
 20
4.259417314
 10
197.1105163212
 20
4.0402261448
 10
196.0053955387
 20
3.9245510436
 10
194.9333305157
 20
3.9129198093
 10
193.8992128393
 20
4.0053855127
 10
192.9077609511
 20
4.201526254
 10
191.9634986188
 20
4.5004470878
 10
191.0707342947
 20
4.9007841071
 10
190.2335414577
 20
5.4007106658
 10
189.4557400267
 20
5.9979457137
 10
188.7408789313
 20
6.6897642043
 10
188.0922199186
 20
7.4730095284
 10
187.512722671
 20
8.3441079173
 10
187.0050313014
 20
9.2990847488
 10
186.5714622892
 20
10.3335826827
 10
186.2139939104
 20
11.4428815422
 10
185.9342572111
 20
12.6219198511
 10
185.7335285657
 20
13.8653179278
 10
185.612723853
 20
15.1674024323
 10
185.5723942773
 20
16.5222322515
  0
LINE
  5
121
330
1F
100
AcDbEntity
  8
0
  6
Continuous
 62
     7
370
    25
100
AcDbLine
 10
234.4369122633
 20
-27.0708718394
 30
0.0
 11
234.370613661
 21
-27.0329244688
 31
0.0
  0
ARC
  5
122
330
1F
100
AcDbEntity
  8
0
  6
Continuous
 62
     7
370
    25
100
AcDbCircle
 10
222.1864599033
 20
15.7968235923
 30
0.0
 40
50.71474406557469
100
AcDbArc
 50
317.5722908717
 51
342.296382726
  0
LWPOLYLINE
  5
123
330
1F
100
AcDbEntity
  8
0
  6
Continuous
 62
     7
370
    25
100
AcDbPolyline
 90
       34
 70
   128
 43
0.0
 10
303.3446242954
 20
-5.6533024231
 10
303.6393576163
 20
-5.832819861
 10
304.381867568
 20
-6.3774418329
 10
305.0616255676
 20
-7.0176223878
 10
305.6750876715
 20
-7.7500239208
 10
306.2190555725
 20
-8.5708280295
 10
306.6906932738
 20
-9.4757554212
 10
307.0875418747
 20
-10.4600882235
 10
307.4075323905
 20
-11.518694581
 10
307.6489965387
 20
-12.6460554104
 10
307.8106754371
 20
-13.8362931742
 10
307.8917261668
 20
-15.083202524
 10
307.8917261668
 20
-16.3802826516
 10
307.8106754371
 20
-17.720771182
 10
307.6489965387
 20
-19.0976794285
 10
307.4075323905
 20
-20.5038288292
 10
307.0875418747
 20
-21.9318883723
 10
306.6906932738
 20
-23.3744128164
 10
306.2190555725
 20
-24.823881507
 10
305.6750876715
 20
-26.2727375857
 10
305.0616255676
 20
-27.7134273876
 10
304.381867568
 20
-29.1384398232
 10
303.6393576163
 20
-30.5403455375
 10
302.8379668156
 20
-31.9118356432
 10
301.9818732463
 20
-33.2457598261
 10
301.075540184
 20
-34.5351636229
 10
300.1236928295
 20
-35.7733246795
 10
299.1312936743
 20
-36.9537877974
 10
298.103516628
 20
-38.0703985883
 10
297.0457200443
 20
-39.1173355608
 10
295.9634187847
 20
-40.0891404703
 10
294.8622554669
 20
-40.9807467758
 10
293.7479710464
 20
-41.787506055
 10
293.688663987
 20
-41.8278106145
  0
SPLINE
  5
124
330
1F
100
AcDbEntity
  8
0
  6
Continuous
 62
     7
370
    25
100
AcDbSpline
210
0.0
220
0.0
230
1.0
 70
     8
 71
     3
 72
    12
 73
     8
 74
     0
 42
0.00000001
 43
0.00000001
 40
0.0
 40
0.0
 40
0.0
 40
0.0
 40
0.20757944934806
 40
0.4151856817214051
 40
0.6224719413862236
 40
0.8297982424181539
 40
1.0
 40
1.0
 40
1.0
 40
1.0
 10
281.7389165186523
 20
-36.54721441832525
 30
0.0
 10
281.4814380024884
 20
-36.70615217054722
 30
0.0
 10
280.9664477488873
 20
-37.02404818200112
 30
0.0
 10
280.3812412603245
 20
-37.52365927274585
 30
0.0
 10
279.9653512293568
 20
-38.0266830577342
 30
0.0
 10
279.7219180487128
 20
-38.50134194859956
 30
0.0
 10
279.7100773839449
 20
-38.80651952177102
 30
0.0
 10
279.7047392324924
 20
-38.9441033599606
 30
0.0
  0
SPLINE
  5
125
330
1F
100
AcDbEntity
  8
0
  6
Continuous
 62
     7
370
    25
100
AcDbSpline
210
0.0
220
0.0
230
1.0
 70
     8
 71
     3
 72
    22
 73
    18
 74
     0
 42
0.00000001
 43
0.00000001
 40
0.0
 40
0.0
 40
0.0
 40
0.0
 40
0.0158879137118034
 40
0.0883656155294268
 40
0.1608306352672848
 40
0.2330420972821424
 40
0.3052370161798688
 40
0.3740373062459617
 40
0.4428441887090704
 40
0.5105640573854704
 40
0.5782984036111145
 40
0.6487747989780948
 40
0.719253009205834
 40
0.7921514802594313
 40
0.8650335212870452
 40
0.9325207234060015
 40
1.0
 40
1.0
 40
1.0
 40
1.0
 10
293.6721857188007
 20
-38.94322485735537
 30
0.0
 10
293.6772169591712
 20
-38.88178586865642
 30
0.0
 10
293.7051997805961
 20
-38.54007366198353
 30
0.0
 10
293.5609466583418
 20
-37.91782205650389
 30
0.0
 10
293.2321301221352
 20
-37.12051729510615
 30
0.0
 10
292.6921314896062
 20
-36.40291739046295
 30
0.0
 10
291.9949194353414
 20
-35.80109247607633
 30
0.0
 10
291.1568450333218
 20
-35.33936839021417
 30
0.0
 10
290.2230241936662
 20
-35.01736021631719
 30
0.0
 10
289.2046498940114
 20
-34.83573974072841
 30
0.0
 10
288.1192069365364
 20
-34.77977850449628
 30
0.0
 10
286.9838253704972
 20
-34.84924591871341
 30
0.0
 10
285.8132496126797
 20
-35.03263467031909
 30
0.0
 10
284.6506418211821
 20
-35.31977416036481
 30
0.0
 10
283.5590067539592
 20
-35.68438985307215
 30
0.0
 10
282.568513089655
 20
-36.0975570031318
 30
0.0
 10
282.0154378830605
 20
-36.39733448112244
 30
0.0
 10
281.7389165186523
 20
-36.54721441832525
 30
0.0
  0
LWPOLYLINE
  5
126
330
1F
100
AcDbEntity
  8
0
  6
Continuous
 62
     7
370
    25
100
AcDbPolyline
 90
       50
 70
   128
 43
0.0
 10
281.7389165187
 20
-52.0614898442
 10
282.4125135342
 20
-51.7195494593
 10
283.1563248221
 20
-51.4301426214
 10
283.9581370213
 20
-51.1980213826
 10
284.8047843978
 20
-51.0269971672
 10
285.6823650251
 20
-50.9198781882
 10
286.5764690535
 20
-50.8784233362
 10
287.4724153197
 20
-50.9033132987
 10
288.3554924106
 20
-50.9941393833
 10
289.2112002249
 20
-51.1494102281
 10
290.0254880639
 20
-51.3665762902
 10
290.7849853438
 20
-51.6420717088
 10
291.4772211403
 20
-51.9713728568
 10
292.0908289607
 20
-52.3490726185
 10
292.6157333816
 20
-52.7689691741
 10
293.0433154868
 20
-53.2241678338
 10
293.3665543902
 20
-53.7071942484
 10
293.5801425177
 20
-54.2101171372
 10
293.6805727583
 20
-54.7246785206
 10
293.6661960502
 20
-55.2424293146
 10
293.5372484585
 20
-55.7548680657
 10
293.2958472991
 20
-56.2535805437
 10
292.9459563724
 20
-56.7303779035
 10
292.4933208777
 20
-57.1774311456
 10
291.9453730774
 20
-57.5873996682
 10
291.3111102591
 20
-57.9535517994
 10
290.6009470008
 20
-58.2698753314
 10
289.8265441636
 20
-58.5311762406
 10
289.0006174206
 20
-58.7331639731
 10
288.1367284662
 20
-58.8725218961
 10
287.2490623331
 20
-58.9469617563
 10
286.3521944746
 20
-58.9552612533
 10
285.4608514362
 20
-58.8972841095
 10
284.589669046
 20
-58.773982308
 10
283.7529520946
 20
-58.587380461
 10
282.9644394514
 20
-58.3405425657
 10
282.237078472
 20
-58.0375216935
 10
281.5828124038
 20
-57.6832934388
 10
281.0123842774
 20
-57.2836742196
 10
280.5351605069
 20
-56.8452257725
 10
280.1589770934
 20
-56.375147409
 10
279.8900109581
 20
-55.8811578027
 10
279.7326785177
 20
-55.3713682492
 10
279.6895631664
 20
-54.8541494791
 10
279.761372857
 20
-54.3379942102
 10
279.9469284765
 20
-53.8313776977
 10
280.2431832066
 20
-53.3426185707
 10
280.645272553
 20
-52.8797422407
 10
281.1465942196
 20
-52.4503491242
 10
281.7389165187
 20
-52.0614898442
  0
LWPOLYLINE
  5
127
330
1F
100
AcDbEntity
  8
0
  6
Continuous
 62
     7
370
    25
100
AcDbPolyline
 90
       42
 70
   128
 43
0.0
 10
283.153130081
 20
-52.877897956
 10
283.7342617602
 20
-52.590257564
 10
284.3846421235
 20
-52.3571990044
 10
285.0890268065
 20
-52.1841849724
 10
285.8309056292
 20
-52.0752707703
 10
286.5928895809
 20
-52.0330092545
 10
287.3571184034
 20
-52.0583909993
 10
288.1056792209
 20
-52.1508210781
 10
288.8210264024
 20
-52.308133008
 10
289.4863928162
 20
-52.526639531
 10
290.0861828375
 20
-52.8012190391
 10
290.6063378965
 20
-53.1254356215
 10
291.0346659995
 20
-53.4916899164
 10
291.3611274989
 20
-53.8913972333
 10
291.5780704137
 20
-54.3151887717
 10
291.680409786
 20
-54.753131217
 10
291.6657468675
 20
-55.1949595695
 10
291.5344253447
 20
-55.6303177471
 10
291.2895232828
 20
-56.0490013231
 10
290.9367809784
 20
-56.4411967093
 10
290.4844664124
 20
-56.7977111784
 10
289.9431814546
 20
-57.1101883332
 10
289.3256133658
 20
-57.3713039742
 10
288.6462374186
 20
-57.574937772
 10
287.9209776092
 20
-57.7163167231
 10
287.166833413
 20
-57.7921270245
 10
286.4014813308
 20
-57.8005917472
 10
285.6428605666
 20
-57.7415124851
 10
284.9087525482
 20
-57.6162740061
 10
284.2163641453
 20
-57.4278117941
 10
283.5819243553
 20
-57.1805432435
 10
283.0203039092
 20
-56.8802641195
 10
282.544666714
 20
-56.5340127104
 10
282.1661613027
 20
-56.1499048557
 10
281.8936595212
 20
-55.736943718
 10
281.7335485803
 20
-55.3048087562
 10
281.6895813448
 20
-54.8636288478
 10
281.7627883694
 20
-54.4237448757
 10
281.9514537435
 20
-53.9954673475
 10
282.2511553106
 20
-53.5888347254
 10
282.65486832
 20
-53.2133781335
 10
283.153130081
 20
-52.877897956
  0
LWPOLYLINE
  5
128
330
1F
100
AcDbEntity
  8
0
  6
Continuous
 62
     1
370
    25
100
AcDbPolyline
 90
       54
 70
   128
 43
0.0
 10
265.3680943727
 20
26.6621049988
 10
265.7198406795
 20
26.4496143
 10
266.6134383071
 20
25.8170975071
 10
267.4447468413
 20
25.0878496793
 10
268.2106737599
 20
24.2645836666
 10
268.9083697644
 20
23.3503620726
 10
269.5352393799
 20
22.3485858615
 10
270.0889506101
 20
21.2629817069
 10
270.567443613
 20
20.0975881273
 10
270.9689383631
 20
18.8567404635
 10
271.2919412736
 20
17.5450547503
 10
271.5352507525
 20
16.1674105446
 10
271.6979616725
 20
14.7289327734
 10
271.7794687383
 20
13.2349726686
 10
271.7794687383
 20
11.6910878597
 10
271.6979616725
 20
10.1030216997
 10
271.5352507525
 20
8.4766818991
 10
271.2919412736
 20
6.8181185486
 10
270.9689383631
 20
5.1335016129
 10
270.567443613
 20
3.4290979777
 10
270.0889506101
 20
1.7112481364
 10
269.5352393799
 20
-0.0136573968
 10
268.9083697644
 20
-1.7392018599
 10
268.2106737599
 20
-3.4589661143
 10
267.4447468413
 20
-5.166552524
 10
266.6134383071
 20
-6.8556087553
 10
265.7198406795
 20
-8.5198514082
 10
264.7672782004
 20
-10.1530893906
 10
263.7592944649
 20
-11.74924695
 10
262.6996392387
 20
-13.3023862755
 10
261.5922545087
 20
-14.8067295867
 10
260.4412598189
 20
-16.2566806278
 10
259.2509369452
 20
-17.6468454855
 10
258.0257139668
 20
-18.9720526554
 10
256.7701487937
 20
-20.2273722797
 10
255.4889122108
 20
-21.408134487
 10
254.1867705022
 20
-22.5099467643
 10
252.8685677208
 20
-23.5287102976
 10
251.5392076675
 20
-24.4606352196
 10
250.2036356488
 20
-25.3022547084
 10
248.8668200806
 20
-26.0504378842
 10
247.5337340044
 20
-26.7024014564
 10
246.2093365881
 20
-27.2557200779
 10
244.898554677
 20
-27.7083353668
 10
243.6062644659
 20
-28.0585635647
 10
242.3372733593
 20
-28.3051017997
 10
241.0963020875
 20
-28.4470329332
 10
239.8879671451
 20
-28.4838289722
 10
238.7167636174
 20
-28.415353033
 10
237.5870484585
 20
-28.2418598506
 10
236.503024283
 20
-27.9639948311
 10
235.468723732
 20
-27.5827916504
 10
234.4879944715
 20
-27.0996684096
 10
234.4369122633
 20
-27.0708718394
  0
ARC
  5
129
330
1F
100
AcDbEntity
  8
0
  6
Continuous
 62
     1
370
    25
100
AcDbCircle
 10
235.6938157127
 20
8.0006041291
 30
0.0
 40
35.74278668388948
100
AcDbArc
 50
310.8495461286
 51
348.9790125439
  0
ENDSEC
  0
SECTION
  2
OBJECTS
  0
DICTIONARY
  5
C
330
0
100
AcDbDictionary
281
     1
  3
ACAD_GROUP
350
D
  3
ACAD_LAYOUT
350
1A
  3
ACAD_MLINESTYLE
350
17
  3
ACAD_PLOTSETTINGS
350
19
  3
ACAD_PLOTSTYLENAME
350
E
  3
ACAD_SCALELIST
350
47
  3
DWGPROPS
350
12A
  0
DICTIONARY
  5
D
102
{ACAD_REACTORS
330
C
102
}
330
C
100
AcDbDictionary
281
     1
  0
DICTIONARY
  5
1A
102
{ACAD_REACTORS
330
C
102
}
330
C
100
AcDbDictionary
281
     1
  3
Layout1
350
1E
  3
Layout2
350
26
  3
Model
350
22
  0
DICTIONARY
  5
17
102
{ACAD_REACTORS
330
C
102
}
330
C
100
AcDbDictionary
281
     1
  3
Standard
350
18
  0
DICTIONARY
  5
19
102
{ACAD_REACTORS
330
C
102
}
330
C
100
AcDbDictionary
281
     1
  0
ACDBDICTIONARYWDFLT
  5
E
102
{ACAD_REACTORS
330
C
102
}
330
C
100
AcDbDictionary
281
     1
  3
Normal
350
F
100
AcDbDictionaryWithDefault
340
F
  0
DICTIONARY
  5
47
102
{ACAD_REACTORS
330
C
102
}
330
C
100
AcDbDictionary
281
     1
  3
A0
350
48
  3
A1
350
49
  3
A2
350
4A
  3
A3
350
4B
  3
A4
350
4C
  3
A5
350
4D
  3
A6
350
4E
  3
A7
350
4F
  3
A8
350
50
  3
A9
350
51
  3
B0
350
52
  3
B1
350
53
  3
B2
350
54
  3
B3
350
55
  3
B4
350
56
  3
B5
350
57
  3
B6
350
58
  3
B7
350
59
  3
B8
350
5A
  3
B9
350
5B
  3
C0
350
5C
  3
C1
350
5D
  3
C2
350
5E
  3
C3
350
5F
  3
C4
350
60
  3
C5
350
61
  3
C6
350
62
  3
C7
350
63
  3
C8
350
64
  3
C9
350
65
  3
D0
350
66
  3
D1
350
67
  3
D2
350
68
  0
XRECORD
  5
12A
102
{ACAD_REACTORS
330
C
102
}
330
C
100
AcDbXrecord
280
     1
  1
DWGPROPS COOKIE
  2

  3

  4

  6

  7

  8
b.kav
  9

300
=
301
=
302
=
303
=
304
=
305
=
306
=
307
=
308
=
309
=
 40
0.0
 41
2460346.545729803
 42
2460346.545729988
  1

 90
        0
  0
LAYOUT
  5
1E
102
{ACAD_REACTORS
330
1A
102
}
330
1A
100
AcDbPlotSettings
  1

  2
none_device
  4

  6

 40
0.0
 41
0.0
 42
0.0
 43
0.0
 44
0.0
 45
0.0
 46
0.0
 47
0.0
 48
0.0
 49
0.0
140
0.0
141
0.0
142
1.0
143
1.0
 70
   688
 72
     1
 73
     0
 74
     5
  7

 75
    16
147
1.0
148
0.0
149
0.0
100
AcDbLayout
  1
Layout1
 70
     1
 71
     1
 10
0.0
 20
0.0
 11
420.0
 21
297.0
 12
0.0
 22
0.0
 32
0.0
 14
1.0000000000E+20
 24
1.0000000000E+20
 34
1.0000000000E+20
 15
-1.0000000000E+20
 25
-1.0000000000E+20
 35
-1.0000000000E+20
146
0.0
 13
0.0
 23
0.0
 33
0.0
 16
1.0
 26
0.0
 36
0.0
 17
0.0
 27
1.0
 37
0.0
 76
     0
330
1B
  0
LAYOUT
  5
26
102
{ACAD_REACTORS
330
1A
102
}
330
1A
100
AcDbPlotSettings
  1

  2
none_device
  4

  6

 40
0.0
 41
0.0
 42
0.0
 43
0.0
 44
0.0
 45
0.0
 46
0.0
 47
0.0
 48
0.0
 49
0.0
140
0.0
141
0.0
142
1.0
143
1.0
 70
   688
 72
     1
 73
     0
 74
     5
  7

 75
    16
147
1.0
148
0.0
149
0.0
100
AcDbLayout
  1
Layout2
 70
     1
 71
     2
 10
0.0
 20
0.0
 11
0.0
 21
0.0
 12
0.0
 22
0.0
 32
0.0
 14
0.0
 24
0.0
 34
0.0
 15
0.0
 25
0.0
 35
0.0
146
0.0
 13
0.0
 23
0.0
 33
0.0
 16
1.0
 26
0.0
 36
0.0
 17
0.0
 27
1.0
 37
0.0
 76
     0
330
23
  0
LAYOUT
  5
22
102
{ACAD_REACTORS
330
1A
102
}
330
1A
100
AcDbPlotSettings
  1

  2
none_device
  4
Letter_(8.50_x_11.00_Inches)
  6

 40
6.35
 41
6.35
 42
6.35000508
 43
6.35000508
 44
215.9
 45
279.4
 46
0.0
 47
0.0
 48
0.0
 49
0.0
140
0.0
141
0.0
142
1.0
143
1.0
 70
  1712
 72
     1
 73
     0
 74
     0
  7

 75
     0
147
1.0
148
0.0
149
0.0
100
AcDbLayout
  1
Model
 70
     1
 71
     0
 10
0.0
 20
0.0
 11
279.4
 21
215.9
 12
0.0
 22
0.0
 32
0.0
 14
0.0
 24
0.0
 34
0.0
 15
279.4
 25
215.9
 35
0.0
146
0.0
 13
0.0
 23
0.0
 33
0.0
 16
1.0
 26
0.0
 36
0.0
 17
0.0
 27
1.0
 37
0.0
 76
     0
330
1F
331
29
  0
MLINESTYLE
  5
18
102
{ACAD_REACTORS
330
17
102
}
330
17
100
AcDbMlineStyle
  2
Standard
 70
     0
  3

 62
   256
 51
90.0
 52
90.0
 71
     2
 49
0.5
 62
   256
  6
BYLAYER
 49
-0.5
 62
   256
  6
BYLAYER
  0
ACDBPLACEHOLDER
  5
F
102
{ACAD_REACTORS
330
E
102
}
330
E
  0
SCALE
  5
48
102
{ACAD_REACTORS
330
47
102
}
330
47
100
AcDbScale
 70
     0
300
1:1
140
1.0
141
1.0
290
     1
  0
SCALE
  5
49
102
{ACAD_REACTORS
330
47
102
}
330
47
100
AcDbScale
 70
     0
300
1:2
140
1.0
141
2.0
290
     0
  0
SCALE
  5
4A
102
{ACAD_REACTORS
330
47
102
}
330
47
100
AcDbScale
 70
     0
300
1:4
140
1.0
141
4.0
290
     0
  0
SCALE
  5
4B
102
{ACAD_REACTORS
330
47
102
}
330
47
100
AcDbScale
 70
     0
300
1:5
140
1.0
141
5.0
290
     0
  0
SCALE
  5
4C
102
{ACAD_REACTORS
330
47
102
}
330
47
100
AcDbScale
 70
     0
300
1:8
140
1.0
141
8.0
290
     0
  0
SCALE
  5
4D
102
{ACAD_REACTORS
330
47
102
}
330
47
100
AcDbScale
 70
     0
300
1:10
140
1.0
141
10.0
290
     0
  0
SCALE
  5
4E
102
{ACAD_REACTORS
330
47
102
}
330
47
100
AcDbScale
 70
     0
300
1:16
140
1.0
141
16.0
290
     0
  0
SCALE
  5
4F
102
{ACAD_REACTORS
330
47
102
}
330
47
100
AcDbScale
 70
     0
300
1:20
140
1.0
141
20.0
290
     0
  0
SCALE
  5
50
102
{ACAD_REACTORS
330
47
102
}
330
47
100
AcDbScale
 70
     0
300
1:30
140
1.0
141
30.0
290
     0
  0
SCALE
  5
51
102
{ACAD_REACTORS
330
47
102
}
330
47
100
AcDbScale
 70
     0
300
1:40
140
1.0
141
40.0
290
     0
  0
SCALE
  5
52
102
{ACAD_REACTORS
330
47
102
}
330
47
100
AcDbScale
 70
     0
300
1:50
140
1.0
141
50.0
290
     0
  0
SCALE
  5
53
102
{ACAD_REACTORS
330
47
102
}
330
47
100
AcDbScale
 70
     0
300
1:100
140
1.0
141
100.0
290
     0
  0
SCALE
  5
54
102
{ACAD_REACTORS
330
47
102
}
330
47
100
AcDbScale
 70
     0
300
2:1
140
2.0
141
1.0
290
     0
  0
SCALE
  5
55
102
{ACAD_REACTORS
330
47
102
}
330
47
100
AcDbScale
 70
     0
300
4:1
140
4.0
141
1.0
290
     0
  0
SCALE
  5
56
102
{ACAD_REACTORS
330
47
102
}
330
47
100
AcDbScale
 70
     0
300
8:1
140
8.0
141
1.0
290
     0
  0
SCALE
  5
57
102
{ACAD_REACTORS
330
47
102
}
330
47
100
AcDbScale
 70
     0
300
10:1
140
10.0
141
1.0
290
     0
  0
SCALE
  5
58
102
{ACAD_REACTORS
330
47
102
}
330
47
100
AcDbScale
 70
     0
300
100:1
140
100.0
141
1.0
290
     0
  0
SCALE
  5
59
102
{ACAD_REACTORS
330
47
102
}
330
47
100
AcDbScale
 70
     0
300
1/128" = 1'-0"
140
0.0078125
141
12.0
290
     0
  0
SCALE
  5
5A
102
{ACAD_REACTORS
330
47
102
}
330
47
100
AcDbScale
 70
     0
300
1/64" = 1'-0"
140
0.015625
141
12.0
290
     0
  0
SCALE
  5
5B
102
{ACAD_REACTORS
330
47
102
}
330
47
100
AcDbScale
 70
     0
300
1/32" = 1'-0"
140
0.03125
141
12.0
290
     0
  0
SCALE
  5
5C
102
{ACAD_REACTORS
330
47
102
}
330
47
100
AcDbScale
 70
     0
300
1/16" = 1'-0"
140
0.0625
141
12.0
290
     0
  0
SCALE
  5
5D
102
{ACAD_REACTORS
330
47
102
}
330
47
100
AcDbScale
 70
     0
300
3/32" = 1'-0"
140
0.09375
141
12.0
290
     0
  0
SCALE
  5
5E
102
{ACAD_REACTORS
330
47
102
}
330
47
100
AcDbScale
 70
     0
300
1/8" = 1'-0"
140
0.125
141
12.0
290
     0
  0
SCALE
  5
5F
102
{ACAD_REACTORS
330
47
102
}
330
47
100
AcDbScale
 70
     0
300
3/16" = 1'-0"
140
0.1875
141
12.0
290
     0
  0
SCALE
  5
60
102
{ACAD_REACTORS
330
47
102
}
330
47
100
AcDbScale
 70
     0
300
1/4" = 1'-0"
140
0.25
141
12.0
290
     0
  0
SCALE
  5
61
102
{ACAD_REACTORS
330
47
102
}
330
47
100
AcDbScale
 70
     0
300
3/8" = 1'-0"
140
0.375
141
12.0
290
     0
  0
SCALE
  5
62
102
{ACAD_REACTORS
330
47
102
}
330
47
100
AcDbScale
 70
     0
300
1/2" = 1'-0"
140
0.5
141
12.0
290
     0
  0
SCALE
  5
63
102
{ACAD_REACTORS
330
47
102
}
330
47
100
AcDbScale
 70
     0
300
3/4" = 1'-0"
140
0.75
141
12.0
290
     0
  0
SCALE
  5
64
102
{ACAD_REACTORS
330
47
102
}
330
47
100
AcDbScale
 70
     0
300
1" = 1'-0"
140
1.0
141
12.0
290
     0
  0
SCALE
  5
65
102
{ACAD_REACTORS
330
47
102
}
330
47
100
AcDbScale
 70
     0
300
1-1/2" = 1'-0"
140
1.5
141
12.0
290
     0
  0
SCALE
  5
66
102
{ACAD_REACTORS
330
47
102
}
330
47
100
AcDbScale
 70
     0
300
3" = 1'-0"
140
3.0
141
12.0
290
     0
  0
SCALE
  5
67
102
{ACAD_REACTORS
330
47
102
}
330
47
100
AcDbScale
 70
     0
300
6" = 1'-0"
140
6.0
141
12.0
290
     0
  0
SCALE
  5
68
102
{ACAD_REACTORS
330
47
102
}
330
47
100
AcDbScale
 70
     0
300
1'-0" = 1'-0"
140
12.0
141
12.0
290
     0
  0
ENDSEC
  0
EOF
